  0
SECTION
  2
HEADER
  9
$ACADVER
  1
AC1014
  9
$ACADMAINTVER
 70
     9
  9
$DWGCODEPAGE
  3
ANSI_1252
  9
$INSBASE
 10
0.0
 20
0.0
 30
0.0
  9
$EXTMIN
 10
-3454.327660514812
 20
-6791.830161401394
 30
0.0
  9
$EXTMAX
 10
4928.923579599054
 20
-566.6851306402705
 30
0.0
  9
$LIMMIN
 10
0.0
 20
0.0
  9
$LIMMAX
 10
12.0
 20
9.0
  9
$ORTHOMODE
 70
     0
  9
$REGENMODE
 70
     1
  9
$FILLMODE
 70
     1
  9
$QTEXTMODE
 70
     0
  9
$MIRRTEXT
 70
     1
  9
$DRAGMODE
 70
     2
  9
$LTSCALE
 40
1.0
  9
$OSMODE
 70
    37
  9
$ATTMODE
 70
     1
  9
$TEXTSIZE
 40
30.0
  9
$TRACEWID
 40
0.05
  9
$TEXTSTYLE
  7
STANDARD
  9
$CLAYER
  8
BEDIENRAUM
  9
$CELTYPE
  6
BYLAYER
  9
$CECOLOR
 62
     2
  9
$CELTSCALE
 40
1.0
  9
$DELOBJ
 70
     1
  9
$DISPSILH
 70
     0
  9
$DIMSCALE
 40
1.0
  9
$DIMASZ
 40
20.0
  9
$DIMEXO
 40
0.0625
  9
$DIMDLI
 40
0.38
  9
$DIMRND
 40
0.0
  9
$DIMDLE
 40
0.0
  9
$DIMEXE
 40
0.18
  9
$DIMTP
 40
0.0
  9
$DIMTM
 40
0.0
  9
$DIMTXT
 40
20.0
  9
$DIMCEN
 40
0.09
  9
$DIMTSZ
 40
0.0
  9
$DIMTOL
 70
     0
  9
$DIMLIM
 70
     0
  9
$DIMTIH
 70
     0
  9
$DIMTOH
 70
     1
  9
$DIMSE1
 70
     0
  9
$DIMSE2
 70
     0
  9
$DIMTAD
 70
     0
  9
$DIMZIN
 70
     0
  9
$DIMBLK
  1

  9
$DIMASO
 70
     1
  9
$DIMSHO
 70
     1
  9
$DIMPOST
  1

  9
$DIMAPOST
  1

  9
$DIMALT
 70
     0
  9
$DIMALTD
 70
     2
  9
$DIMALTF
 40
25.4
  9
$DIMLFAC
 40
1.0
  9
$DIMTOFL
 70
     0
  9
$DIMTVP
 40
0.0
  9
$DIMTIX
 70
     0
  9
$DIMSOXD
 70
     0
  9
$DIMSAH
 70
     0
  9
$DIMBLK1
  1

  9
$DIMBLK2
  1

  9
$DIMSTYLE
  2
STANDARD
  9
$DIMCLRD
 70
     0
  9
$DIMCLRE
 70
     0
  9
$DIMCLRT
 70
     0
  9
$DIMTFAC
 40
1.0
  9
$DIMGAP
 40
0.09
  9
$DIMJUST
 70
     0
  9
$DIMSD1
 70
     0
  9
$DIMSD2
 70
     0
  9
$DIMTOLJ
 70
     1
  9
$DIMTZIN
 70
     0
  9
$DIMALTZ
 70
     0
  9
$DIMALTTZ
 70
     0
  9
$DIMFIT
 70
     3
  9
$DIMUPT
 70
     0
  9
$DIMUNIT
 70
     2
  9
$DIMDEC
 70
     2
  9
$DIMTDEC
 70
     2
  9
$DIMALTU
 70
     2
  9
$DIMALTTD
 70
     2
  9
$DIMTXSTY
  7
STANDARD
  9
$DIMAUNIT
 70
     0
  9
$LUNITS
 70
     2
  9
$LUPREC
 70
     4
  9
$SKETCHINC
 40
0.1
  9
$FILLETRAD
 40
0.5
  9
$AUNITS
 70
     0
  9
$AUPREC
 70
     0
  9
$MENU
  1
.
  9
$ELEVATION
 40
0.0
  9
$PELEVATION
 40
0.0
  9
$THICKNESS
 40
0.0
  9
$LIMCHECK
 70
     0
  9
$CHAMFERA
 40
0.5
  9
$CHAMFERB
 40
0.5
  9
$CHAMFERC
 40
1.0
  9
$CHAMFERD
 40
0.0
  9
$SKPOLY
 70
     0
  9
$TDCREATE
 40
2453353.800459155
  9
$TDUPDATE
 40
4917340.21157037
  9
$TDINDWG
 40
2440862.049751111
  9
$TDUSRTIMER
 40
2440862.049751111
  9
$USRTIMER
 70
     1
  9
$ANGBASE
 50
0.0
  9
$ANGDIR
 70
     0
  9
$PDMODE
 70
     0
  9
$PDSIZE
 40
0.0
  9
$PLINEWID
 40
9.0
  9
$COORDS
 70
     1
  9
$SPLFRAME
 70
     0
  9
$SPLINETYPE
 70
     6
  9
$SPLINESEGS
 70
     8
  9
$ATTDIA
 70
     0
  9
$ATTREQ
 70
     1
  9
$HANDLING
 70
     1
  9
$HANDSEED
  5
64CC
  9
$SURFTAB1
 70
     6
  9
$SURFTAB2
 70
     6
  9
$SURFTYPE
 70
     6
  9
$SURFU
 70
     6
  9
$SURFV
 70
     6
  9
$UCSNAME
  2

  9
$UCSORG
 10
0.0
 20
0.0
 30
0.0
  9
$UCSXDIR
 10
1.0
 20
0.0
 30
0.0
  9
$UCSYDIR
 10
0.0
 20
1.0
 30
0.0
  9
$PUCSNAME
  2

  9
$PUCSORG
 10
0.0
 20
0.0
 30
0.0
  9
$PUCSXDIR
 10
1.0
 20
0.0
 30
0.0
  9
$PUCSYDIR
 10
0.0
 20
1.0
 30
0.0
  9
$USERI1
 70
     0
  9
$USERI2
 70
     0
  9
$USERI3
 70
     0
  9
$USERI4
 70
     0
  9
$USERI5
 70
     0
  9
$USERR1
 40
0.0
  9
$USERR2
 40
0.0
  9
$USERR3
 40
0.0
  9
$USERR4
 40
0.0
  9
$USERR5
 40
0.0
  9
$WORLDVIEW
 70
     1
  9
$SHADEDGE
 70
     3
  9
$SHADEDIF
 70
    70
  9
$TILEMODE
 70
     1
  9
$MAXACTVP
 70
    64
  9
$PINSBASE
 10
0.0
 20
0.0
 30
0.0
  9
$PLIMCHECK
 70
     0
  9
$PEXTMIN
 10
0.0
 20
0.0
 30
0.0
  9
$PEXTMAX
 10
0.0
 20
0.0
 30
0.0
  9
$PLIMMIN
 10
0.0
 20
0.0
  9
$PLIMMAX
 10
0.0
 20
0.0
  9
$UNITMODE
 70
     0
  9
$VISRETAIN
 70
     0
  9
$PLINEGEN
 70
     0
  9
$PSLTSCALE
 70
     1
  9
$TREEDEPTH
 70
  3020
  9
$PICKSTYLE
 70
     1
  9
$CMLSTYLE
  2
STANDARD
  9
$CMLJUST
 70
     0
  9
$CMLSCALE
 40
1.0
  9
$PROXYGRAPHICS
 70
     1
  9
$MEASUREMENT
 70
     0
  0
ENDSEC
  0
SECTION
  2
CLASSES
  0
CLASS
  1
ACDBDICTIONARYWDFLT
  2
AcDbDictionaryWithDefault
  3
ObjectDBX Classes
 90
        0
280
     0
281
     0
  0
CLASS
  1
ACDBPLACEHOLDER
  2
AcDbPlaceHolder
  3
ObjectDBX Classes
 90
        0
280
     0
281
     0
  0
CLASS
  1
LAYOUT
  2
AcDbLayout
  3
ObjectDBX Classes
 90
        0
280
     0
281
     0
  0
CLASS
  1
DICTIONARYVAR
  2
AcDbDictionaryVar
  3
ObjectDBX Classes
 90
        0
280
     0
281
     0
  0
CLASS
  1
TABLESTYLE
  2
AcDbTableStyle
  3
ObjectDBX Classes
 90
     2047
280
     0
281
     0
  0
CLASS
  1
XRECORD
  2
AcDbXrecord
  3
AutoCAD 2000
 90
        0
280
     0
281
     0
  0
CLASS
  1
LWPOLYLINE
  2
AcDbPolyline
  3
AutoCAD 2000
 90
        0
280
     0
281
     1
  0
CLASS
  1
HATCH
  2
AcDbHatch
  3
AutoCAD 2000
 90
        0
280
     0
281
     1
  0
ENDSEC
  0
SECTION
  2
TABLES
  0
TABLE
  2
VPORT
  5
8
330
0
100
AcDbSymbolTable
 70
     2
  0
VPORT
  5
97
330
8
100
AcDbSymbolTableRecord
100
AcDbViewportTableRecord
  2
*ACTIVE
 70
     0
 10
0.0
 20
0.0
 11
1.0
 21
1.0
 12
4038.634280807444
 22
-5487.611598617202
 13
0.0
 23
0.0
 14
0.5
 24
0.5
 15
0.5
 25
0.5
 16
0.0
 26
0.0
 36
1.0
 17
0.0
 27
0.0
 37
0.0
 40
11919.81407692062
 41
1.333333333333333
 42
50.0
 43
0.0
 44
0.0
 50
0.0
 51
0.0
 71
    16
 72
   100
 73
     0
 74
     1
 75
     0
 76
     0
 77
     0
 78
     0
  0
ENDTAB
  0
TABLE
  2
LTYPE
  5
5
330
0
100
AcDbSymbolTable
 70
     1
  0
LTYPE
  5
14
330
5
100
AcDbSymbolTableRecord
100
AcDbLinetypeTableRecord
  2
BYBLOCK
 70
     0
  3
CONTINUOUS
 72
    65
 73
     0
 40
0.0
  0
LTYPE
  5
15
330
5
100
AcDbSymbolTableRecord
100
AcDbLinetypeTableRecord
  2
BYLAYER
 70
     0
  3
CONTINUOUS
 72
    65
 73
     0
 40
0.0
  0
LTYPE
  5
16
330
5
100
AcDbSymbolTableRecord
100
AcDbLinetypeTableRecord
  2
CONTINUOUS
 70
     0
  3
CONTINUOUS
 72
    65
 73
     0
 40
0.0
  0
ENDTAB
  0
TABLE
  2
LAYER
  5
2
330
0
100
AcDbSymbolTable
 70
     6
  0
LAYER
  5
10
330
2
100
AcDbSymbolTableRecord
100
AcDbLayerTableRecord
  2
0
 70
     0
 62
     7
  6
CONTINUOUS
  0
LAYER
  5
3607
330
2
100
AcDbSymbolTableRecord
100
AcDbLayerTableRecord
  2
GLEISE
 70
     0
 62
     1
  6
CONTINUOUS
  0
LAYER
  5
3633
330
2
100
AcDbSymbolTableRecord
100
AcDbLayerTableRecord
  2
TEXTE
 70
     0
 62
     2
  6
CONTINUOUS
  0
LAYER
  5
367B
330
2
100
AcDbSymbolTableRecord
100
AcDbLayerTableRecord
  2
INFO
 70
     0
 62
     3
  6
CONTINUOUS
  0
LAYER
  5
367C
330
2
100
AcDbSymbolTableRecord
100
AcDbLayerTableRecord
  2
DCC
 70
     0
 62
     4
  6
CONTINUOUS
  0
LAYER
  5
367D
330
2
100
AcDbSymbolTableRecord
100
AcDbLayerTableRecord
  2
BEDIENRAUM
 70
     0
 62
     2
  6
CONTINUOUS
  0
ENDTAB
  0
TABLE
  2
STYLE
  5
3
330
0
100
AcDbSymbolTable
 70
     1
  0
STYLE
  5
11
330
3
100
AcDbSymbolTableRecord
100
AcDbTextStyleTableRecord
  2
STANDARD
 70
     0
 40
0.0
 41
1.0
 50
0.0
 71
     0
 42
0.2
  3
TXT
  4

  0
ENDTAB
  0
TABLE
  2
VIEW
  5
6
330
0
100
AcDbSymbolTable
 70
     0
  0
ENDTAB
  0
TABLE
  2
UCS
  5
7
330
0
100
AcDbSymbolTable
 70
     0
  0
ENDTAB
  0
TABLE
  2
APPID
  5
9
330
0
100
AcDbSymbolTable
 70
     1
  0
APPID
  5
12
330
9
100
AcDbSymbolTableRecord
100
AcDbRegAppTableRecord
  2
ACAD
 70
     0
  0
ENDTAB
  0
TABLE
  2
DIMSTYLE
  5
A
330
0
100
AcDbSymbolTable
 70
     2
  0
DIMSTYLE
105
27
330
A
100
AcDbSymbolTableRecord
100
AcDbDimStyleTableRecord
  2
STANDARD
 70
     0
  3

  4

  5

  6

  7

 40
1.0
 41
0.18
 42
0.0625
 43
0.38
 44
0.18
 45
0.0
 46
0.0
 47
0.0
 48
0.0
140
0.18
141
0.09
142
0.0
143
25.4
144
1.0
145
0.0
146
1.0
147
0.09
 71
     0
 72
     0
 73
     1
 74
     1
 75
     0
 76
     0
 77
     0
 78
     0
170
     0
171
     2
172
     0
173
     0
174
     0
175
     0
176
     0
177
     0
178
     0
270
     2
271
     4
272
     4
273
     2
274
     2
340
11
275
     0
280
     0
281
     0
282
     0
283
     1
284
     0
285
     0
286
     0
287
     3
288
     0
  0
DIMSTYLE
105
3417
330
A
100
AcDbSymbolTableRecord
100
AcDbDimStyleTableRecord
  2
ISO-25
 70
     0
  3

  4

  5

  6

  7

 40
1.0
 41
2.5
 42
0.625
 43
3.75
 44
1.25
 45
0.0
 46
0.0
 47
0.0
 48
0.0
140
2.5
141
2.5
142
0.0
143
0.03937007874016
144
1.0
145
0.0
146
1.0
147
0.625
 71
     0
 72
     0
 73
     0
 74
     0
 75
     0
 76
     0
 77
     1
 78
     8
170
     0
171
     3
172
     1
173
     0
174
     0
175
     0
176
     0
177
     0
178
     0
270
     2
271
     2
272
     2
273
     2
274
     3
340
11
275
     0
280
     0
281
     0
282
     0
283
     0
284
     8
285
     0
286
     0
287
     3
288
     0
  0
ENDTAB
  0
TABLE
  2
BLOCK_RECORD
  5
1
330
0
100
AcDbSymbolTable
 70
   191
  0
BLOCK_RECORD
  5
1F
330
1
100
AcDbSymbolTableRecord
100
AcDbBlockTableRecord
  2
*MODEL_SPACE
  0
BLOCK_RECORD
  5
73
330
1
100
AcDbSymbolTableRecord
100
AcDbBlockTableRecord
  2
*PAPER_SPACE
  0
BLOCK_RECORD
  5
4B3
330
1
100
AcDbSymbolTableRecord
100
AcDbBlockTableRecord
  2
*D0
  0
BLOCK_RECORD
  5
66
330
1
100
AcDbSymbolTableRecord
100
AcDbBlockTableRecord
  2
*D1
  0
BLOCK_RECORD
  5
4B8
330
1
100
AcDbSymbolTableRecord
100
AcDbBlockTableRecord
  2
*D2
  0
BLOCK_RECORD
  5
80
330
1
100
AcDbSymbolTableRecord
100
AcDbBlockTableRecord
  2
*D3
  0
BLOCK_RECORD
  5
91
330
1
100
AcDbSymbolTableRecord
100
AcDbBlockTableRecord
  2
*D4
  0
BLOCK_RECORD
  5
241
330
1
100
AcDbSymbolTableRecord
100
AcDbBlockTableRecord
  2
*D5
  0
BLOCK_RECORD
  5
24E
330
1
100
AcDbSymbolTableRecord
100
AcDbBlockTableRecord
  2
*D6
  0
BLOCK_RECORD
  5
25B
330
1
100
AcDbSymbolTableRecord
100
AcDbBlockTableRecord
  2
*D7
  0
BLOCK_RECORD
  5
268
330
1
100
AcDbSymbolTableRecord
100
AcDbBlockTableRecord
  2
*D8
  0
BLOCK_RECORD
  5
275
330
1
100
AcDbSymbolTableRecord
100
AcDbBlockTableRecord
  2
*D9
  0
BLOCK_RECORD
  5
282
330
1
100
AcDbSymbolTableRecord
100
AcDbBlockTableRecord
  2
*D10
  0
BLOCK_RECORD
  5
28F
330
1
100
AcDbSymbolTableRecord
100
AcDbBlockTableRecord
  2
*D11
  0
BLOCK_RECORD
  5
29C
330
1
100
AcDbSymbolTableRecord
100
AcDbBlockTableRecord
  2
*D12
  0
BLOCK_RECORD
  5
2A9
330
1
100
AcDbSymbolTableRecord
100
AcDbBlockTableRecord
  2
*D13
  0
BLOCK_RECORD
  5
2B6
330
1
100
AcDbSymbolTableRecord
100
AcDbBlockTableRecord
  2
*D14
  0
BLOCK_RECORD
  5
2C3
330
1
100
AcDbSymbolTableRecord
100
AcDbBlockTableRecord
  2
*D15
  0
BLOCK_RECORD
  5
2D0
330
1
100
AcDbSymbolTableRecord
100
AcDbBlockTableRecord
  2
*D16
  0
BLOCK_RECORD
  5
2DC
330
1
100
AcDbSymbolTableRecord
100
AcDbBlockTableRecord
  2
*D17
  0
BLOCK_RECORD
  5
2E9
330
1
100
AcDbSymbolTableRecord
100
AcDbBlockTableRecord
  2
*D18
  0
BLOCK_RECORD
  5
2F5
330
1
100
AcDbSymbolTableRecord
100
AcDbBlockTableRecord
  2
*D19
  0
BLOCK_RECORD
  5
301
330
1
100
AcDbSymbolTableRecord
100
AcDbBlockTableRecord
  2
*D20
  0
BLOCK_RECORD
  5
30E
330
1
100
AcDbSymbolTableRecord
100
AcDbBlockTableRecord
  2
*D21
  0
BLOCK_RECORD
  5
31A
330
1
100
AcDbSymbolTableRecord
100
AcDbBlockTableRecord
  2
*D22
  0
BLOCK_RECORD
  5
327
330
1
100
AcDbSymbolTableRecord
100
AcDbBlockTableRecord
  2
*D23
  0
BLOCK_RECORD
  5
333
330
1
100
AcDbSymbolTableRecord
100
AcDbBlockTableRecord
  2
*D24
  0
BLOCK_RECORD
  5
340
330
1
100
AcDbSymbolTableRecord
100
AcDbBlockTableRecord
  2
*D25
  0
BLOCK_RECORD
  5
34D
330
1
100
AcDbSymbolTableRecord
100
AcDbBlockTableRecord
  2
*D26
  0
BLOCK_RECORD
  5
35A
330
1
100
AcDbSymbolTableRecord
100
AcDbBlockTableRecord
  2
*D27
  0
BLOCK_RECORD
  5
367
330
1
100
AcDbSymbolTableRecord
100
AcDbBlockTableRecord
  2
*D28
  0
BLOCK_RECORD
  5
374
330
1
100
AcDbSymbolTableRecord
100
AcDbBlockTableRecord
  2
*D29
  0
BLOCK_RECORD
  5
381
330
1
100
AcDbSymbolTableRecord
100
AcDbBlockTableRecord
  2
*D30
  0
BLOCK_RECORD
  5
38E
330
1
100
AcDbSymbolTableRecord
100
AcDbBlockTableRecord
  2
*D31
  0
BLOCK_RECORD
  5
39B
330
1
100
AcDbSymbolTableRecord
100
AcDbBlockTableRecord
  2
*D32
  0
BLOCK_RECORD
  5
3A8
330
1
100
AcDbSymbolTableRecord
100
AcDbBlockTableRecord
  2
*D33
  0
BLOCK_RECORD
  5
3B5
330
1
100
AcDbSymbolTableRecord
100
AcDbBlockTableRecord
  2
*D34
  0
BLOCK_RECORD
  5
3CA
330
1
100
AcDbSymbolTableRecord
100
AcDbBlockTableRecord
  2
*D35
  0
BLOCK_RECORD
  5
3D7
330
1
100
AcDbSymbolTableRecord
100
AcDbBlockTableRecord
  2
*D36
  0
BLOCK_RECORD
  5
3EE
330
1
100
AcDbSymbolTableRecord
100
AcDbBlockTableRecord
  2
*D37
  0
BLOCK_RECORD
  5
3FA
330
1
100
AcDbSymbolTableRecord
100
AcDbBlockTableRecord
  2
*D38
  0
BLOCK_RECORD
  5
407
330
1
100
AcDbSymbolTableRecord
100
AcDbBlockTableRecord
  2
*D39
  0
BLOCK_RECORD
  5
414
330
1
100
AcDbSymbolTableRecord
100
AcDbBlockTableRecord
  2
*D40
  0
BLOCK_RECORD
  5
421
330
1
100
AcDbSymbolTableRecord
100
AcDbBlockTableRecord
  2
*D41
  0
BLOCK_RECORD
  5
42E
330
1
100
AcDbSymbolTableRecord
100
AcDbBlockTableRecord
  2
*D42
  0
BLOCK_RECORD
  5
43B
330
1
100
AcDbSymbolTableRecord
100
AcDbBlockTableRecord
  2
*D43
  0
BLOCK_RECORD
  5
448
330
1
100
AcDbSymbolTableRecord
100
AcDbBlockTableRecord
  2
*D44
  0
BLOCK_RECORD
  5
455
330
1
100
AcDbSymbolTableRecord
100
AcDbBlockTableRecord
  2
*D45
  0
BLOCK_RECORD
  5
462
330
1
100
AcDbSymbolTableRecord
100
AcDbBlockTableRecord
  2
*D46
  0
BLOCK_RECORD
  5
46F
330
1
100
AcDbSymbolTableRecord
100
AcDbBlockTableRecord
  2
*D47
  0
BLOCK_RECORD
  5
47C
330
1
100
AcDbSymbolTableRecord
100
AcDbBlockTableRecord
  2
*D48
  0
BLOCK_RECORD
  5
48B
330
1
100
AcDbSymbolTableRecord
100
AcDbBlockTableRecord
  2
*D49
  0
BLOCK_RECORD
  5
497
330
1
100
AcDbSymbolTableRecord
100
AcDbBlockTableRecord
  2
*D50
  0
BLOCK_RECORD
  5
4A3
330
1
100
AcDbSymbolTableRecord
100
AcDbBlockTableRecord
  2
*D51
  0
BLOCK_RECORD
  5
4AF
330
1
100
AcDbSymbolTableRecord
100
AcDbBlockTableRecord
  2
*D52
  0
BLOCK_RECORD
  5
535
330
1
100
AcDbSymbolTableRecord
100
AcDbBlockTableRecord
  2
*D53
  0
BLOCK_RECORD
  5
542
330
1
100
AcDbSymbolTableRecord
100
AcDbBlockTableRecord
  2
*D54
  0
BLOCK_RECORD
  5
54F
330
1
100
AcDbSymbolTableRecord
100
AcDbBlockTableRecord
  2
*D55
  0
BLOCK_RECORD
  5
55C
330
1
100
AcDbSymbolTableRecord
100
AcDbBlockTableRecord
  2
*D56
  0
BLOCK_RECORD
  5
569
330
1
100
AcDbSymbolTableRecord
100
AcDbBlockTableRecord
  2
*D57
  0
BLOCK_RECORD
  5
576
330
1
100
AcDbSymbolTableRecord
100
AcDbBlockTableRecord
  2
*D58
  0
BLOCK_RECORD
  5
583
330
1
100
AcDbSymbolTableRecord
100
AcDbBlockTableRecord
  2
*D59
  0
BLOCK_RECORD
  5
590
330
1
100
AcDbSymbolTableRecord
100
AcDbBlockTableRecord
  2
*D60
  0
BLOCK_RECORD
  5
59D
330
1
100
AcDbSymbolTableRecord
100
AcDbBlockTableRecord
  2
*D61
  0
BLOCK_RECORD
  5
5AA
330
1
100
AcDbSymbolTableRecord
100
AcDbBlockTableRecord
  2
*D62
  0
BLOCK_RECORD
  5
299C
330
1
100
AcDbSymbolTableRecord
100
AcDbBlockTableRecord
  2
*D63
  0
BLOCK_RECORD
  5
2BCC
330
1
100
AcDbSymbolTableRecord
100
AcDbBlockTableRecord
  2
*D64
  0
BLOCK_RECORD
  5
2BD9
330
1
100
AcDbSymbolTableRecord
100
AcDbBlockTableRecord
  2
*D65
  0
BLOCK_RECORD
  5
2BE5
330
1
100
AcDbSymbolTableRecord
100
AcDbBlockTableRecord
  2
*D66
  0
BLOCK_RECORD
  5
2BF1
330
1
100
AcDbSymbolTableRecord
100
AcDbBlockTableRecord
  2
*D67
  0
BLOCK_RECORD
  5
2BFD
330
1
100
AcDbSymbolTableRecord
100
AcDbBlockTableRecord
  2
*D68
  0
BLOCK_RECORD
  5
2C0A
330
1
100
AcDbSymbolTableRecord
100
AcDbBlockTableRecord
  2
*D69
  0
BLOCK_RECORD
  5
2C17
330
1
100
AcDbSymbolTableRecord
100
AcDbBlockTableRecord
  2
*D70
  0
BLOCK_RECORD
  5
2C24
330
1
100
AcDbSymbolTableRecord
100
AcDbBlockTableRecord
  2
*D71
  0
BLOCK_RECORD
  5
2C30
330
1
100
AcDbSymbolTableRecord
100
AcDbBlockTableRecord
  2
*D72
  0
BLOCK_RECORD
  5
2C3C
330
1
100
AcDbSymbolTableRecord
100
AcDbBlockTableRecord
  2
*D73
  0
BLOCK_RECORD
  5
2C48
330
1
100
AcDbSymbolTableRecord
100
AcDbBlockTableRecord
  2
*D74
  0
BLOCK_RECORD
  5
2C55
330
1
100
AcDbSymbolTableRecord
100
AcDbBlockTableRecord
  2
*D75
  0
BLOCK_RECORD
  5
2E14
330
1
100
AcDbSymbolTableRecord
100
AcDbBlockTableRecord
  2
*D76
  0
BLOCK_RECORD
  5
2E23
330
1
100
AcDbSymbolTableRecord
100
AcDbBlockTableRecord
  2
*D77
  0
BLOCK_RECORD
  5
2E41
330
1
100
AcDbSymbolTableRecord
100
AcDbBlockTableRecord
  2
*D78
  0
BLOCK_RECORD
  5
2E4E
330
1
100
AcDbSymbolTableRecord
100
AcDbBlockTableRecord
  2
*D79
  0
BLOCK_RECORD
  5
2E5D
330
1
100
AcDbSymbolTableRecord
100
AcDbBlockTableRecord
  2
*D80
  0
BLOCK_RECORD
  5
2E6C
330
1
100
AcDbSymbolTableRecord
100
AcDbBlockTableRecord
  2
*D81
  0
BLOCK_RECORD
  5
2E7B
330
1
100
AcDbSymbolTableRecord
100
AcDbBlockTableRecord
  2
*D82
  0
BLOCK_RECORD
  5
2E8A
330
1
100
AcDbSymbolTableRecord
100
AcDbBlockTableRecord
  2
*D83
  0
BLOCK_RECORD
  5
2E99
330
1
100
AcDbSymbolTableRecord
100
AcDbBlockTableRecord
  2
*D84
  0
BLOCK_RECORD
  5
2EA8
330
1
100
AcDbSymbolTableRecord
100
AcDbBlockTableRecord
  2
*D85
  0
BLOCK_RECORD
  5
39A9
330
1
100
AcDbSymbolTableRecord
100
AcDbBlockTableRecord
  2
258
  0
BLOCK_RECORD
  5
39FC
330
1
100
AcDbSymbolTableRecord
100
AcDbBlockTableRecord
  2
11
  0
BLOCK_RECORD
  5
3A4F
330
1
100
AcDbSymbolTableRecord
100
AcDbBlockTableRecord
  2
14
  0
BLOCK_RECORD
  5
3AA2
330
1
100
AcDbSymbolTableRecord
100
AcDbBlockTableRecord
  2
17
  0
BLOCK_RECORD
  5
3AF5
330
1
100
AcDbSymbolTableRecord
100
AcDbBlockTableRecord
  2
18
  0
BLOCK_RECORD
  5
3B48
330
1
100
AcDbSymbolTableRecord
100
AcDbBlockTableRecord
  2
21
  0
BLOCK_RECORD
  5
3B9B
330
1
100
AcDbSymbolTableRecord
100
AcDbBlockTableRecord
  2
751
  0
BLOCK_RECORD
  5
3BEE
330
1
100
AcDbSymbolTableRecord
100
AcDbBlockTableRecord
  2
24
  0
BLOCK_RECORD
  5
3C41
330
1
100
AcDbSymbolTableRecord
100
AcDbBlockTableRecord
  2
25
  0
BLOCK_RECORD
  5
3C91
330
1
100
AcDbSymbolTableRecord
100
AcDbBlockTableRecord
  2
26
  0
BLOCK_RECORD
  5
3CAD
330
1
100
AcDbSymbolTableRecord
100
AcDbBlockTableRecord
  2
27
  0
BLOCK_RECORD
  5
3CB6
330
1
100
AcDbSymbolTableRecord
100
AcDbBlockTableRecord
  2
28
  0
BLOCK_RECORD
  5
3CBF
330
1
100
AcDbSymbolTableRecord
100
AcDbBlockTableRecord
  2
29
  0
BLOCK_RECORD
  5
3DBC
330
1
100
AcDbSymbolTableRecord
100
AcDbBlockTableRecord
  2
30
  0
BLOCK_RECORD
  5
3DFA
330
1
100
AcDbSymbolTableRecord
100
AcDbBlockTableRecord
  2
45
  0
BLOCK_RECORD
  5
3E4D
330
1
100
AcDbSymbolTableRecord
100
AcDbBlockTableRecord
  2
3
  0
BLOCK_RECORD
  5
3E8B
330
1
100
AcDbSymbolTableRecord
100
AcDbBlockTableRecord
  2
51
  0
BLOCK_RECORD
  5
3EDE
330
1
100
AcDbSymbolTableRecord
100
AcDbBlockTableRecord
  2
52
  0
BLOCK_RECORD
  5
4175
330
1
100
AcDbSymbolTableRecord
100
AcDbBlockTableRecord
  2
752
  0
BLOCK_RECORD
  5
417E
330
1
100
AcDbSymbolTableRecord
100
AcDbBlockTableRecord
  2
753
  0
BLOCK_RECORD
  5
43CD
330
1
100
AcDbSymbolTableRecord
100
AcDbBlockTableRecord
  2
758
  0
BLOCK_RECORD
  5
43E0
330
1
100
AcDbSymbolTableRecord
100
AcDbBlockTableRecord
  2
7
  0
BLOCK_RECORD
  5
441E
330
1
100
AcDbSymbolTableRecord
100
AcDbBlockTableRecord
  2
774
  0
BLOCK_RECORD
  5
442C
330
1
100
AcDbSymbolTableRecord
100
AcDbBlockTableRecord
  2
5
  0
BLOCK_RECORD
  5
4448
330
1
100
AcDbSymbolTableRecord
100
AcDbBlockTableRecord
  2
775
  0
BLOCK_RECORD
  5
4486
330
1
100
AcDbSymbolTableRecord
100
AcDbBlockTableRecord
  2
777
  0
BLOCK_RECORD
  5
448F
330
1
100
AcDbSymbolTableRecord
100
AcDbBlockTableRecord
  2
778
  0
BLOCK_RECORD
  5
4498
330
1
100
AcDbSymbolTableRecord
100
AcDbBlockTableRecord
  2
780
  0
BLOCK_RECORD
  5
44A1
330
1
100
AcDbSymbolTableRecord
100
AcDbBlockTableRecord
  2
783
  0
BLOCK_RECORD
  5
44EA
330
1
100
AcDbSymbolTableRecord
100
AcDbBlockTableRecord
  2
784
  0
BLOCK_RECORD
  5
44F3
330
1
100
AcDbSymbolTableRecord
100
AcDbBlockTableRecord
  2
787
  0
BLOCK_RECORD
  5
45A2
330
1
100
AcDbSymbolTableRecord
100
AcDbBlockTableRecord
  2
788
  0
BLOCK_RECORD
  5
45B2
330
1
100
AcDbSymbolTableRecord
100
AcDbBlockTableRecord
  2
794
  0
BLOCK_RECORD
  5
4629
330
1
100
AcDbSymbolTableRecord
100
AcDbBlockTableRecord
  2
795
  0
BLOCK_RECORD
  5
4632
330
1
100
AcDbSymbolTableRecord
100
AcDbBlockTableRecord
  2
797
  0
BLOCK_RECORD
  5
463B
330
1
100
AcDbSymbolTableRecord
100
AcDbBlockTableRecord
  2
799
  0
BLOCK_RECORD
  5
465B
330
1
100
AcDbSymbolTableRecord
100
AcDbBlockTableRecord
  2
801
  0
BLOCK_RECORD
  5
46E0
330
1
100
AcDbSymbolTableRecord
100
AcDbBlockTableRecord
  2
802
  0
BLOCK_RECORD
  5
4793
330
1
100
AcDbSymbolTableRecord
100
AcDbBlockTableRecord
  2
803
  0
BLOCK_RECORD
  5
479C
330
1
100
AcDbSymbolTableRecord
100
AcDbBlockTableRecord
  2
804
  0
BLOCK_RECORD
  5
47C7
330
1
100
AcDbSymbolTableRecord
100
AcDbBlockTableRecord
  2
EINFAHRT_RECHTS_PECO_64MM
  0
BLOCK_RECORD
  5
5372
330
1
100
AcDbSymbolTableRecord
100
AcDbBlockTableRecord
  2
9
  0
BLOCK_RECORD
  5
537B
330
1
100
AcDbSymbolTableRecord
100
AcDbBlockTableRecord
  2
10
  0
BLOCK_RECORD
  5
538C
330
1
100
AcDbSymbolTableRecord
100
AcDbBlockTableRecord
  2
23
  0
BLOCK_RECORD
  5
5395
330
1
100
AcDbSymbolTableRecord
100
AcDbBlockTableRecord
  2
66
  0
BLOCK_RECORD
  5
539E
330
1
100
AcDbSymbolTableRecord
100
AcDbBlockTableRecord
  2
67
  0
BLOCK_RECORD
  5
53A7
330
1
100
AcDbSymbolTableRecord
100
AcDbBlockTableRecord
  2
68
  0
BLOCK_RECORD
  5
53B0
330
1
100
AcDbSymbolTableRecord
100
AcDbBlockTableRecord
  2
69
  0
BLOCK_RECORD
  5
5475
330
1
100
AcDbSymbolTableRecord
100
AcDbBlockTableRecord
  2
70
  0
BLOCK_RECORD
  5
547E
330
1
100
AcDbSymbolTableRecord
100
AcDbBlockTableRecord
  2
73
  0
BLOCK_RECORD
  5
5487
330
1
100
AcDbSymbolTableRecord
100
AcDbBlockTableRecord
  2
74
  0
BLOCK_RECORD
  5
5490
330
1
100
AcDbSymbolTableRecord
100
AcDbBlockTableRecord
  2
75
  0
BLOCK_RECORD
  5
5499
330
1
100
AcDbSymbolTableRecord
100
AcDbBlockTableRecord
  2
76
  0
BLOCK_RECORD
  5
54A2
330
1
100
AcDbSymbolTableRecord
100
AcDbBlockTableRecord
  2
78
  0
BLOCK_RECORD
  5
54AB
330
1
100
AcDbSymbolTableRecord
100
AcDbBlockTableRecord
  2
81
  0
BLOCK_RECORD
  5
54BC
330
1
100
AcDbSymbolTableRecord
100
AcDbBlockTableRecord
  2
82
  0
BLOCK_RECORD
  5
54C5
330
1
100
AcDbSymbolTableRecord
100
AcDbBlockTableRecord
  2
83
  0
BLOCK_RECORD
  5
5566
330
1
100
AcDbSymbolTableRecord
100
AcDbBlockTableRecord
  2
84
  0
BLOCK_RECORD
  5
5574
330
1
100
AcDbSymbolTableRecord
100
AcDbBlockTableRecord
  2
92
  0
BLOCK_RECORD
  5
5582
330
1
100
AcDbSymbolTableRecord
100
AcDbBlockTableRecord
  2
99
  0
BLOCK_RECORD
  5
5590
330
1
100
AcDbSymbolTableRecord
100
AcDbBlockTableRecord
  2
100
  0
BLOCK_RECORD
  5
559E
330
1
100
AcDbSymbolTableRecord
100
AcDbBlockTableRecord
  2
101
  0
BLOCK_RECORD
  5
55AC
330
1
100
AcDbSymbolTableRecord
100
AcDbBlockTableRecord
  2
102
  0
BLOCK_RECORD
  5
55B5
330
1
100
AcDbSymbolTableRecord
100
AcDbBlockTableRecord
  2
103
  0
BLOCK_RECORD
  5
5656
330
1
100
AcDbSymbolTableRecord
100
AcDbBlockTableRecord
  2
104
  0
BLOCK_RECORD
  5
56F7
330
1
100
AcDbSymbolTableRecord
100
AcDbBlockTableRecord
  2
107
  0
BLOCK_RECORD
  5
5822
330
1
100
AcDbSymbolTableRecord
100
AcDbBlockTableRecord
  2
22
  0
BLOCK_RECORD
  5
5830
330
1
100
AcDbSymbolTableRecord
100
AcDbBlockTableRecord
  2
176
  0
BLOCK_RECORD
  5
5839
330
1
100
AcDbSymbolTableRecord
100
AcDbBlockTableRecord
  2
177
  0
BLOCK_RECORD
  5
5842
330
1
100
AcDbSymbolTableRecord
100
AcDbBlockTableRecord
  2
204
  0
BLOCK_RECORD
  5
584B
330
1
100
AcDbSymbolTableRecord
100
AcDbBlockTableRecord
  2
205
  0
BLOCK_RECORD
  5
5854
330
1
100
AcDbSymbolTableRecord
100
AcDbBlockTableRecord
  2
253
  0
BLOCK_RECORD
  5
585D
330
1
100
AcDbSymbolTableRecord
100
AcDbBlockTableRecord
  2
254
  0
BLOCK_RECORD
  5
5866
330
1
100
AcDbSymbolTableRecord
100
AcDbBlockTableRecord
  2
255
  0
BLOCK_RECORD
  5
586F
330
1
100
AcDbSymbolTableRecord
100
AcDbBlockTableRecord
  2
256
  0
BLOCK_RECORD
  5
5878
330
1
100
AcDbSymbolTableRecord
100
AcDbBlockTableRecord
  2
257
  0
BLOCK_RECORD
  5
5881
330
1
100
AcDbSymbolTableRecord
100
AcDbBlockTableRecord
  2
261
  0
BLOCK_RECORD
  5
58BF
330
1
100
AcDbSymbolTableRecord
100
AcDbBlockTableRecord
  2
262
  0
BLOCK_RECORD
  5
58FD
330
1
100
AcDbSymbolTableRecord
100
AcDbBlockTableRecord
  2
263
  0
BLOCK_RECORD
  5
593B
330
1
100
AcDbSymbolTableRecord
100
AcDbBlockTableRecord
  2
264
  0
BLOCK_RECORD
  5
5944
330
1
100
AcDbSymbolTableRecord
100
AcDbBlockTableRecord
  2
266
  0
BLOCK_RECORD
  5
594D
330
1
100
AcDbSymbolTableRecord
100
AcDbBlockTableRecord
  2
267
  0
BLOCK_RECORD
  5
5A8E
330
1
100
AcDbSymbolTableRecord
100
AcDbBlockTableRecord
  2
270
  0
BLOCK_RECORD
  5
5AE1
330
1
100
AcDbSymbolTableRecord
100
AcDbBlockTableRecord
  2
272
  0
BLOCK_RECORD
  5
5B0D
330
1
100
AcDbSymbolTableRecord
100
AcDbBlockTableRecord
  2
273
  0
BLOCK_RECORD
  5
5B16
330
1
100
AcDbSymbolTableRecord
100
AcDbBlockTableRecord
  2
275
  0
BLOCK_RECORD
  5
5B1F
330
1
100
AcDbSymbolTableRecord
100
AcDbBlockTableRecord
  2
276
  0
BLOCK_RECORD
  5
5C26
330
1
100
AcDbSymbolTableRecord
100
AcDbBlockTableRecord
  2
277
  0
BLOCK_RECORD
  5
5C2F
330
1
100
AcDbSymbolTableRecord
100
AcDbBlockTableRecord
  2
279
  0
BLOCK_RECORD
  5
5C38
330
1
100
AcDbSymbolTableRecord
100
AcDbBlockTableRecord
  2
281
  0
BLOCK_RECORD
  5
5C41
330
1
100
AcDbSymbolTableRecord
100
AcDbBlockTableRecord
  2
282
  0
BLOCK_RECORD
  5
5CEC
330
1
100
AcDbSymbolTableRecord
100
AcDbBlockTableRecord
  2
283
  0
BLOCK_RECORD
  5
5D10
330
1
100
AcDbSymbolTableRecord
100
AcDbBlockTableRecord
  2
287
  0
BLOCK_RECORD
  5
5D34
330
1
100
AcDbSymbolTableRecord
100
AcDbBlockTableRecord
  2
289
  0
BLOCK_RECORD
  5
5D3D
330
1
100
AcDbSymbolTableRecord
100
AcDbBlockTableRecord
  2
290
  0
BLOCK_RECORD
  5
5D46
330
1
100
AcDbSymbolTableRecord
100
AcDbBlockTableRecord
  2
291
  0
BLOCK_RECORD
  5
5D84
330
1
100
AcDbSymbolTableRecord
100
AcDbBlockTableRecord
  2
292
  0
BLOCK_RECORD
  5
5DC2
330
1
100
AcDbSymbolTableRecord
100
AcDbBlockTableRecord
  2
293
  0
BLOCK_RECORD
  5
5DCB
330
1
100
AcDbSymbolTableRecord
100
AcDbBlockTableRecord
  2
294
  0
BLOCK_RECORD
  5
5DD4
330
1
100
AcDbSymbolTableRecord
100
AcDbBlockTableRecord
  2
295
  0
BLOCK_RECORD
  5
5EA7
330
1
100
AcDbSymbolTableRecord
100
AcDbBlockTableRecord
  2
296
  0
BLOCK_RECORD
  5
5EB0
330
1
100
AcDbSymbolTableRecord
100
AcDbBlockTableRecord
  2
297
  0
BLOCK_RECORD
  5
5EB9
330
1
100
AcDbSymbolTableRecord
100
AcDbBlockTableRecord
  2
298
  0
BLOCK_RECORD
  5
5EC2
330
1
100
AcDbSymbolTableRecord
100
AcDbBlockTableRecord
  2
299
  0
BLOCK_RECORD
  5
5F09
330
1
100
AcDbSymbolTableRecord
100
AcDbBlockTableRecord
  2
ELISBURG-BW_V02
  0
ENDTAB
  0
ENDSEC
  0
SECTION
  2
BLOCKS
  0
BLOCK
  5
20
330
1F
100
AcDbEntity
  8
0
100
AcDbBlockBegin
  2
*MODEL_SPACE
 70
     0
 71
     0
 10
0.0
 20
0.0
 30
0.0
  3
*MODEL_SPACE
  1

  0
ENDBLK
  5
21
330
1F
100
AcDbEntity
  8
0
100
AcDbBlockEnd
  0
BLOCK
  5
75
330
73
100
AcDbEntity
 67
     1
  8
0
100
AcDbBlockBegin
  2
*PAPER_SPACE
 70
     0
 71
     0
 10
0.0
 20
0.0
 30
0.0
  3
*PAPER_SPACE
  1

  0
ENDBLK
  5
76
330
73
100
AcDbEntity
 67
     1
  8
0
100
AcDbBlockEnd
  0
BLOCK
  5
632B
330
4B3
100
AcDbEntity
  8
0
100
AcDbBlockBegin
  2
*D0
 70
     1
 71
     0
 10
0.0
 20
0.0
 30
0.0
  3
*D0
  1

  0
LINE
  5
51
330
4B3
100
AcDbEntity
  8
0
  6
BYBLOCK
 62
     0
100
AcDbLine
 10
811.28
 20
628.9025
 30
0.0
 11
811.28
 21
683.7002107234503
 31
0.0
  0
LINE
  5
52
330
4B3
100
AcDbEntity
  8
0
  6
BYBLOCK
 62
     0
100
AcDbLine
 10
0.0
 20
628.9025
 30
0.0
 11
0.0
 21
683.7002107234503
 31
0.0
  0
LINE
  5
53
330
4B3
100
AcDbEntity
  8
0
  6
BYBLOCK
 62
     0
100
AcDbLine
 10
811.1
 20
683.5202107234503
 30
0.0
 11
406.27
 21
683.5202107234503
 31
0.0
  0
SOLID
  5
54
330
4B3
100
AcDbEntity
  8
0
  6
BYBLOCK
 62
     0
100
AcDbTrace
 10
811.28
 20
683.5202107234503
 30
0.0
 11
811.1
 21
683.5502107234503
 31
0.0
 12
811.1
 22
683.4902107234503
 32
0.0
 13
811.1
 23
683.4902107234503
 33
0.0
  0
LINE
  5
55
330
4B3
100
AcDbEntity
  8
0
  6
BYBLOCK
 62
     0
100
AcDbLine
 10
0.17999999999995
 20
683.5202107234503
 30
0.0
 11
405.01
 21
683.5202107234503
 31
0.0
  0
SOLID
  5
56
330
4B3
100
AcDbEntity
  8
0
  6
BYBLOCK
 62
     0
100
AcDbTrace
 10
0.0
 20
683.5202107234503
 30
0.0
 11
0.17999999999995
 21
683.5502107234503
 31
0.0
 12
0.17999999999995
 22
683.4902107234503
 32
0.0
 13
0.17999999999995
 23
683.4902107234503
 33
0.0
  0
MTEXT
  5
57
330
4B3
100
AcDbEntity
  8
0
  6
BYBLOCK
 62
     0
100
AcDbMText
 10
405.64
 20
683.5202107234503
 30
0.0
 40
0.18
 41
0.0
 71
     5
 72
     1
  1
\A1;811.2800
  0
ENDBLK
  5
632C
330
4B3
100
AcDbEntity
  8
0
100
AcDbBlockEnd
  0
BLOCK
  5
632D
330
66
100
AcDbEntity
  8
0
100
AcDbBlockBegin
  2
*D1
 70
     1
 71
     0
 10
0.0
 20
0.0
 30
0.0
  3
*D1
  1

  0
LINE
  5
51F
330
66
100
AcDbEntity
  8
0
  6
BYBLOCK
 62
     0
100
AcDbLine
 10
0.0
 20
628.7775
 30
0.0
 11
0.0
 21
458.728926740258
 31
0.0
  0
LINE
  5
5F
330
66
100
AcDbEntity
  8
0
  6
BYBLOCK
 62
     0
100
AcDbLine
 10
1094.685
 20
345.4975
 30
0.0
 11
1094.685
 21
459.0889267402581
 31
0.0
  0
LINE
  5
60
330
66
100
AcDbEntity
  8
0
  6
BYBLOCK
 62
     0
100
AcDbLine
 10
0.18
 20
458.908926740258
 30
0.0
 11
546.5928
 21
458.908926740258
 31
0.0
  0
SOLID
  5
61
330
66
100
AcDbEntity
  8
0
  6
BYBLOCK
 62
     0
100
AcDbTrace
 10
0.0
 20
458.908926740258
 30
0.0
 11
0.18
 21
458.8789267402581
 31
0.0
 12
0.18
 22
458.938926740258
 32
0.0
 13
0.18
 23
458.938926740258
 33
0.0
  0
LINE
  5
62
330
66
100
AcDbEntity
  8
0
  6
BYBLOCK
 62
     0
100
AcDbLine
 10
1094.505
 20
458.908926740258
 30
0.0
 11
548.0921999999999
 21
458.908926740258
 31
0.0
  0
SOLID
  5
63
330
66
100
AcDbEntity
  8
0
  6
BYBLOCK
 62
     0
100
AcDbTrace
 10
1094.685
 20
458.908926740258
 30
0.0
 11
1094.505
 21
458.8789267402581
 31
0.0
 12
1094.505
 22
458.938926740258
 32
0.0
 13
1094.505
 23
458.938926740258
 33
0.0
  0
MTEXT
  5
64
330
66
100
AcDbEntity
  8
0
  6
BYBLOCK
 62
     0
100
AcDbMText
 10
547.3425
 20
458.908926740258
 30
0.0
 40
0.18
 41
0.0
 71
     5
 72
     1
  1
\A1;1094.6850
  0
ENDBLK
  5
632E
330
66
100
AcDbEntity
  8
0
100
AcDbBlockEnd
  0
BLOCK
  5
632F
330
4B8
100
AcDbEntity
  8
0
100
AcDbBlockBegin
  2
*D2
 70
     1
 71
     0
 10
0.0
 20
0.0
 30
0.0
  3
*D2
  1

  0
LINE
  5
520
330
4B8
100
AcDbEntity
  8
0
  6
BYBLOCK
 62
     0
100
AcDbLine
 10
749.25
 20
-0.0625
 30
0.0
 11
749.25
 21
-33.00769241145991
 31
0.0
  0
LINE
  5
521
330
4B8
100
AcDbEntity
  8
0
  6
BYBLOCK
 62
     0
100
AcDbLine
 10
0.0
 20
-0.0625
 30
0.0
 11
0.0
 21
-33.00769241145991
 31
0.0
  0
LINE
  5
6D
330
4B8
100
AcDbEntity
  8
0
  6
BYBLOCK
 62
     0
100
AcDbLine
 10
749.0700000000001
 20
-32.82769241145991
 30
0.0
 11
375.3144
 21
-32.82769241145991
 31
0.0
  0
SOLID
  5
6E
330
4B8
100
AcDbEntity
  8
0
  6
BYBLOCK
 62
     0
100
AcDbTrace
 10
749.25
 20
-32.82769241145991
 30
0.0
 11
749.0700000000001
 21
-32.7976924114599
 31
0.0
 12
749.0700000000001
 22
-32.85769241145992
 32
0.0
 13
749.0700000000001
 23
-32.85769241145992
 33
0.0
  0
LINE
  5
6F
330
4B8
100
AcDbEntity
  8
0
  6
BYBLOCK
 62
     0
100
AcDbLine
 10
0.17999999999995
 20
-32.82769241145991
 30
0.0
 11
373.9356
 21
-32.82769241145991
 31
0.0
  0
SOLID
  5
70
330
4B8
100
AcDbEntity
  8
0
  6
BYBLOCK
 62
     0
100
AcDbTrace
 10
0.0
 20
-32.82769241145991
 30
0.0
 11
0.17999999999995
 21
-32.7976924114599
 31
0.0
 12
0.17999999999995
 22
-32.85769241145992
 32
0.0
 13
0.17999999999995
 23
-32.85769241145992
 33
0.0
  0
MTEXT
  5
71
330
4B8
100
AcDbEntity
  8
0
  6
BYBLOCK
 62
     0
100
AcDbMText
 10
374.625
 20
-32.82769241145991
 30
0.0
 40
0.18
 41
0.0
 71
     5
 72
     1
  1
\A1;749.2500
  0
ENDBLK
  5
6330
330
4B8
100
AcDbEntity
  8
0
100
AcDbBlockEnd
  0
BLOCK
  5
6331
330
80
100
AcDbEntity
  8
0
100
AcDbBlockBegin
  2
*D3
 70
     1
 71
     0
 10
0.0
 20
0.0
 30
0.0
  3
*D3
  1

  0
LINE
  5
78
330
80
100
AcDbEntity
  8
0
  6
BYBLOCK
 62
     0
100
AcDbLine
 10
-0.0625
 20
628.84
 30
0.0
 11
-38.78784421831998
 21
628.84
 31
0.0
  0
LINE
  5
79
330
80
100
AcDbEntity
  8
0
  6
BYBLOCK
 62
     0
100
AcDbLine
 10
-0.0625
 20
0.0
 30
0.0
 11
-38.78784421831998
 21
0.0
 31
0.0
  0
LINE
  5
7A
330
80
100
AcDbEntity
  8
0
  6
BYBLOCK
 62
     0
100
AcDbLine
 10
-38.60784421831998
 20
628.6600000000001
 30
0.0
 11
-38.60784421831998
 21
314.6
 31
0.0
  0
SOLID
  5
7B
330
80
100
AcDbEntity
  8
0
  6
BYBLOCK
 62
     0
100
AcDbTrace
 10
-38.60784421831998
 20
628.84
 30
0.0
 11
-38.63784421831999
 21
628.6600000000001
 31
0.0
 12
-38.57784421831997
 22
628.6600000000001
 32
0.0
 13
-38.57784421831997
 23
628.6600000000001
 33
0.0
  0
LINE
  5
7C
330
80
100
AcDbEntity
  8
0
  6
BYBLOCK
 62
     0
100
AcDbLine
 10
-38.60784421831998
 20
0.17999999999995
 30
0.0
 11
-38.60784421831998
 21
314.24
 31
0.0
  0
SOLID
  5
7D
330
80
100
AcDbEntity
  8
0
  6
BYBLOCK
 62
     0
100
AcDbTrace
 10
-38.60784421831998
 20
0.0
 30
0.0
 11
-38.63784421831999
 21
0.17999999999995
 31
0.0
 12
-38.57784421831997
 22
0.17999999999995
 32
0.0
 13
-38.57784421831997
 23
0.17999999999995
 33
0.0
  0
MTEXT
  5
7E
330
80
100
AcDbEntity
  8
0
  6
BYBLOCK
 62
     0
100
AcDbMText
 10
-38.60784421831998
 20
314.42
 30
0.0
 40
0.18
 41
0.0
 71
     5
 72
     1
  1
\A1;628.8400
  0
ENDBLK
  5
6332
330
80
100
AcDbEntity
  8
0
100
AcDbBlockEnd
  0
BLOCK
  5
6333
330
91
100
AcDbEntity
  8
0
100
AcDbBlockBegin
  2
*D4
 70
     1
 71
     0
 10
0.0
 20
0.0
 30
0.0
  3
*D4
  1

  0
MTEXT
  5
87
330
91
100
AcDbEntity
  8
0
  6
BYBLOCK
 62
     0
100
AcDbMText
 10
784.9933522173994
 20
619.3784184139212
 30
0.0
 40
0.18
 41
0.0
 71
     5
 72
     1
  1
\A1;135.0000%%d
  0
SOLID
  5
8C
330
91
100
AcDbEntity
  8
0
  6
BYBLOCK
 62
     0
100
AcDbTrace
 10
742.5896790730087
 20
682.84
 30
0.0
 11
742.619914888346
 21
682.6600394613508
 31
0.0
 12
742.5599149398469
 22
682.6599608476549
 32
0.0
 13
742.5599149398469
 23
682.6599608476549
 33
0.0
  0
SOLID
  5
8D
330
91
100
AcDbEntity
  8
0
  6
BYBLOCK
 62
     0
100
AcDbTrace
 10
859.8513917293557
 20
634.2686082706443
 30
0.0
 11
859.7451312442482
 21
634.1202549447472
 31
0.0
 12
859.7027604620712
 22
634.1627369034792
 32
0.0
 13
859.7027604620712
 23
634.1627369034792
 33
0.0
  0
ARC
  5
8E
330
91
100
AcDbEntity
  8
0
  6
BYBLOCK
 62
     0
100
AcDbCircle
 10
811.28
 20
682.84
 30
0.0
 40
68.69032092699122
100
AcDbArc
 50
180.1501411425069
 51
247.1108498853968
  0
ARC
  5
8F
330
91
100
AcDbEntity
  8
0
  6
BYBLOCK
 62
     0
100
AcDbCircle
 10
811.28
 20
682.84
 30
0.0
 40
68.69032092699122
100
AcDbArc
 50
247.8956384997453
 51
314.8498588574931
  0
ENDBLK
  5
6334
330
91
100
AcDbEntity
  8
0
100
AcDbBlockEnd
  0
BLOCK
  5
6335
330
241
100
AcDbEntity
  8
0
100
AcDbBlockBegin
  2
*D5
 70
     1
 71
     0
 10
0.0
 20
0.0
 30
0.0
  3
*D5
  1

  0
LINE
  5
239
330
241
100
AcDbEntity
  8
0
  6
BYBLOCK
 62
     0
100
AcDbLine
 10
-0.0625
 20
0.0
 30
0.0
 11
-66.61357179091543
 21
0.0
 31
0.0
  0
LINE
  5
23A
330
241
100
AcDbEntity
  8
0
  6
BYBLOCK
 62
     0
100
AcDbLine
 10
-0.0625
 20
682.84
 30
0.0
 11
-66.61357179091543
 21
682.84
 31
0.0
  0
LINE
  5
23B
330
241
100
AcDbEntity
  8
0
  6
BYBLOCK
 62
     0
100
AcDbLine
 10
-66.43357179091542
 20
20.0
 30
0.0
 11
-66.43357179091542
 21
291.33
 31
0.0
  0
SOLID
  5
23C
330
241
100
AcDbEntity
  8
0
  6
BYBLOCK
 62
     0
100
AcDbTrace
 10
-66.43357179091542
 20
0.0
 30
0.0
 11
-63.10023845758143
 21
20.0
 31
0.0
 12
-69.76690512424942
 22
20.0
 32
0.0
 13
-69.76690512424942
 23
20.0
 33
0.0
  0
LINE
  5
23D
330
241
100
AcDbEntity
  8
0
  6
BYBLOCK
 62
     0
100
AcDbLine
 10
-66.43357179091542
 20
662.84
 30
0.0
 11
-66.43357179091542
 21
391.51
 31
0.0
  0
SOLID
  5
23E
330
241
100
AcDbEntity
  8
0
  6
BYBLOCK
 62
     0
100
AcDbTrace
 10
-66.43357179091542
 20
682.84
 30
0.0
 11
-63.10023845758143
 21
662.84
 31
0.0
 12
-69.76690512424942
 22
662.84
 32
0.0
 13
-69.76690512424942
 23
662.84
 33
0.0
  0
MTEXT
  5
23F
330
241
100
AcDbEntity
  8
0
  6
BYBLOCK
 62
     0
100
AcDbMText
 10
-66.43357179091542
 20
341.42
 30
0.0
 40
20.0
 41
0.0
 71
     5
 72
     1
  1
\A1;682.84
 11
6.123031769111886E-17
 21
1.0
 31
0.0
  0
ENDBLK
  5
6336
330
241
100
AcDbEntity
  8
0
100
AcDbBlockEnd
  0
BLOCK
  5
6337
330
24E
100
AcDbEntity
  8
0
100
AcDbBlockBegin
  2
*D6
 70
     1
 71
     0
 10
0.0
 20
0.0
 30
0.0
  3
*D6
  1

  0
LINE
  5
246
330
24E
100
AcDbEntity
  8
0
  6
BYBLOCK
 62
     0
100
AcDbLine
 10
1121.685
 20
372.4975
 30
0.0
 11
1121.685
 21
903.6668984661338
 31
0.0
  0
LINE
  5
247
330
24E
100
AcDbEntity
  8
0
  6
BYBLOCK
 62
     0
100
AcDbLine
 10
0.0
 20
682.9025
 30
0.0
 11
0.0
 21
903.6668984661338
 31
0.0
  0
LINE
  5
248
330
24E
100
AcDbEntity
  8
0
  6
BYBLOCK
 62
     0
100
AcDbLine
 10
1101.685
 20
903.4868984661339
 30
0.0
 11
611.0325
 21
903.4868984661339
 31
0.0
  0
SOLID
  5
249
330
24E
100
AcDbEntity
  8
0
  6
BYBLOCK
 62
     0
100
AcDbTrace
 10
1121.685
 20
903.4868984661339
 30
0.0
 11
1101.685
 21
906.8202317994679
 31
0.0
 12
1101.685
 22
900.1535651327998
 32
0.0
 13
1101.685
 23
900.1535651327998
 33
0.0
  0
LINE
  5
24A
330
24E
100
AcDbEntity
  8
0
  6
BYBLOCK
 62
     0
100
AcDbLine
 10
20.0
 20
903.4868984661339
 30
0.0
 11
510.6524999999999
 21
903.4868984661339
 31
0.0
  0
SOLID
  5
24B
330
24E
100
AcDbEntity
  8
0
  6
BYBLOCK
 62
     0
100
AcDbTrace
 10
0.0
 20
903.4868984661339
 30
0.0
 11
20.0
 21
906.8202317994679
 31
0.0
 12
20.0
 22
900.1535651327998
 32
0.0
 13
20.0
 23
900.1535651327998
 33
0.0
  0
MTEXT
  5
24C
330
24E
100
AcDbEntity
  8
0
  6
BYBLOCK
 62
     0
100
AcDbMText
 10
560.8425
 20
903.4868984661339
 30
0.0
 40
20.0
 41
0.0
 71
     5
 72
     1
  1
\A1;1121.68
  0
ENDBLK
  5
6338
330
24E
100
AcDbEntity
  8
0
100
AcDbBlockEnd
  0
BLOCK
  5
6339
330
25B
100
AcDbEntity
  8
0
100
AcDbBlockBegin
  2
*D7
 70
     1
 71
     0
 10
0.0
 20
0.0
 30
0.0
  3
*D7
  1

  0
LINE
  5
253
330
25B
100
AcDbEntity
  8
0
  6
BYBLOCK
 62
     0
100
AcDbLine
 10
811.28
 20
682.9025
 30
0.0
 11
811.28
 21
771.1801375257737
 31
0.0
  0
LINE
  5
254
330
25B
100
AcDbEntity
  8
0
  6
BYBLOCK
 62
     0
100
AcDbLine
 10
0.0
 20
682.9025
 30
0.0
 11
0.0
 21
771.1801375257737
 31
0.0
  0
LINE
  5
255
330
25B
100
AcDbEntity
  8
0
  6
BYBLOCK
 62
     0
100
AcDbLine
 10
791.28
 20
771.0001375257738
 30
0.0
 11
449.13
 21
771.0001375257738
 31
0.0
  0
SOLID
  5
256
330
25B
100
AcDbEntity
  8
0
  6
BYBLOCK
 62
     0
100
AcDbTrace
 10
811.28
 20
771.0001375257738
 30
0.0
 11
791.28
 21
774.3334708591078
 31
0.0
 12
791.28
 22
767.6668041924397
 32
0.0
 13
791.28
 23
767.6668041924397
 33
0.0
  0
LINE
  5
257
330
25B
100
AcDbEntity
  8
0
  6
BYBLOCK
 62
     0
100
AcDbLine
 10
20.0
 20
771.0001375257738
 30
0.0
 11
362.15
 21
771.0001375257738
 31
0.0
  0
SOLID
  5
258
330
25B
100
AcDbEntity
  8
0
  6
BYBLOCK
 62
     0
100
AcDbTrace
 10
0.0
 20
771.0001375257738
 30
0.0
 11
20.0
 21
774.3334708591078
 31
0.0
 12
20.0
 22
767.6668041924397
 32
0.0
 13
20.0
 23
767.6668041924397
 33
0.0
  0
MTEXT
  5
259
330
25B
100
AcDbEntity
  8
0
  6
BYBLOCK
 62
     0
100
AcDbMText
 10
405.64
 20
771.0001375257738
 30
0.0
 40
20.0
 41
0.0
 71
     5
 72
     1
  1
\A1;811.28
  0
ENDBLK
  5
633A
330
25B
100
AcDbEntity
  8
0
100
AcDbBlockEnd
  0
BLOCK
  5
633B
330
268
100
AcDbEntity
  8
0
100
AcDbBlockBegin
  2
*D8
 70
     1
 71
     0
 10
0.0
 20
0.0
 30
0.0
  3
*D8
  1

  0
LINE
  5
260
330
268
100
AcDbEntity
  8
0
  6
BYBLOCK
 62
     0
100
AcDbLine
 10
0.0
 20
-0.0625
 30
0.0
 11
0.0
 21
-78.93641102113782
 31
0.0
  0
LINE
  5
261
330
268
100
AcDbEntity
  8
0
  6
BYBLOCK
 62
     0
100
AcDbLine
 10
749.25
 20
-0.0625
 30
0.0
 11
749.25
 21
-78.93641102113782
 31
0.0
  0
LINE
  5
262
330
268
100
AcDbEntity
  8
0
  6
BYBLOCK
 62
     0
100
AcDbLine
 10
20.0
 20
-78.75641102113781
 30
0.0
 11
324.535
 21
-78.75641102113781
 31
0.0
  0
SOLID
  5
263
330
268
100
AcDbEntity
  8
0
  6
BYBLOCK
 62
     0
100
AcDbTrace
 10
0.0
 20
-78.75641102113781
 30
0.0
 11
20.0
 21
-82.0897443544718
 31
0.0
 12
20.0
 22
-75.42307768780381
 32
0.0
 13
20.0
 23
-75.42307768780381
 33
0.0
  0
LINE
  5
264
330
268
100
AcDbEntity
  8
0
  6
BYBLOCK
 62
     0
100
AcDbLine
 10
729.25
 20
-78.75641102113781
 30
0.0
 11
424.715
 21
-78.75641102113781
 31
0.0
  0
SOLID
  5
265
330
268
100
AcDbEntity
  8
0
  6
BYBLOCK
 62
     0
100
AcDbTrace
 10
749.25
 20
-78.75641102113781
 30
0.0
 11
729.25
 21
-82.0897443544718
 31
0.0
 12
729.25
 22
-75.42307768780381
 32
0.0
 13
729.25
 23
-75.42307768780381
 33
0.0
  0
MTEXT
  5
266
330
268
100
AcDbEntity
  8
0
  6
BYBLOCK
 62
     0
100
AcDbMText
 10
374.625
 20
-78.75641102113781
 30
0.0
 40
20.0
 41
0.0
 71
     5
 72
     1
  1
\A1;749.25
  0
ENDBLK
  5
633C
330
268
100
AcDbEntity
  8
0
100
AcDbBlockEnd
  0
BLOCK
  5
633D
330
275
100
AcDbEntity
  8
0
100
AcDbBlockBegin
  2
*D9
 70
     1
 71
     0
 10
0.0
 20
0.0
 30
0.0
  3
*D9
  1

  0
LINE
  5
26D
330
275
100
AcDbEntity
  8
0
  6
BYBLOCK
 62
     0
100
AcDbLine
 10
749.2941941738242
 20
-0.0441941738241592
 30
0.0
 11
792.3993699721515
 21
-43.14936997215153
 31
0.0
  0
LINE
  5
26E
330
275
100
AcDbEntity
  8
0
  6
BYBLOCK
 62
     0
100
AcDbLine
 10
1121.729194173824
 20
372.3908058261758
 30
0.0
 11
1164.834369972152
 21
329.2856300278484
 31
0.0
  0
LINE
  5
26F
330
275
100
AcDbEntity
  8
0
  6
BYBLOCK
 62
     0
100
AcDbLine
 10
806.4142263752689
 20
-28.879955127807
 30
0.0
 11
944.2726936099209
 21
108.978512106845
 31
0.0
  0
SOLID
  5
270
330
275
100
AcDbEntity
  8
0
  6
BYBLOCK
 62
     0
100
AcDbTrace
 10
792.2720907515379
 20
-43.02209075153795
 30
0.0
 11
808.7712489792245
 21
-31.23697773176263
 31
0.0
 12
804.0572037713133
 22
-26.52293252385137
 32
0.0
 13
804.0572037713133
 23
-26.52293252385137
 33
0.0
  0
LINE
  5
271
330
275
100
AcDbEntity
  8
0
  6
BYBLOCK
 62
     0
100
AcDbLine
 10
1150.564955127807
 20
315.270773624731
 30
0.0
 11
1012.706487893155
 21
177.412306390079
 31
0.0
  0
SOLID
  5
272
330
275
100
AcDbEntity
  8
0
  6
BYBLOCK
 62
     0
100
AcDbTrace
 10
1164.707090751538
 20
329.4129092484619
 30
0.0
 11
1152.921977731763
 21
312.9137510207754
 31
0.0
 12
1148.207932523851
 22
317.6277962286866
 32
0.0
 13
1148.207932523851
 23
317.6277962286866
 33
0.0
  0
MTEXT
  5
273
330
275
100
AcDbEntity
  8
0
  6
BYBLOCK
 62
     0
100
AcDbMText
 10
978.4895907515379
 20
143.195409248462
 30
0.0
 40
20.0
 41
0.0
 71
     5
 72
     1
  1
\A1;526.70
 11
0.7071067811865476
 21
0.7071067811865475
 31
0.0
  0
ENDBLK
  5
633E
330
275
100
AcDbEntity
  8
0
100
AcDbBlockEnd
  0
BLOCK
  5
633F
330
282
100
AcDbEntity
  8
0
100
AcDbBlockBegin
  2
*D10
 70
     1
 71
     0
 10
0.0
 20
0.0
 30
0.0
  3
*D10
  1

  0
LINE
  5
27A
330
282
100
AcDbEntity
  8
0
  6
BYBLOCK
 62
     0
100
AcDbLine
 10
1121.729194173824
 20
372.4791941738241
 30
0.0
 11
1176.186910352063
 21
426.9369103520625
 31
0.0
  0
LINE
  5
27B
330
282
100
AcDbEntity
  8
0
  6
BYBLOCK
 62
     0
100
AcDbLine
 10
811.3241941738241
 20
682.8841941738242
 30
0.0
 11
865.7819103520625
 21
737.3419103520625
 31
0.0
  0
LINE
  5
27C
330
282
100
AcDbEntity
  8
0
  6
BYBLOCK
 62
     0
100
AcDbLine
 10
1161.917495507718
 20
440.9517667551798
 30
0.0
 11
1056.276109801083
 21
546.5931524618147
 31
0.0
  0
SOLID
  5
27D
330
282
100
AcDbEntity
  8
0
  6
BYBLOCK
 62
     0
100
AcDbTrace
 10
1176.059631131449
 20
426.8096311314488
 30
0.0
 11
1164.274518111674
 21
443.3087893591355
 31
0.0
 12
1159.560472903762
 22
438.5947441512242
 32
0.0
 13
1159.560472903762
 23
438.5947441512242
 33
0.0
  0
LINE
  5
27E
330
282
100
AcDbEntity
  8
0
  6
BYBLOCK
 62
     0
100
AcDbLine
 10
879.7967667551799
 20
723.0724955077179
 30
0.0
 11
985.4381524618146
 21
617.4311098010832
 31
0.0
  0
SOLID
  5
27F
330
282
100
AcDbEntity
  8
0
  6
BYBLOCK
 62
     0
100
AcDbTrace
 10
865.6546311314489
 20
737.2146311314489
 30
0.0
 11
882.1537893591354
 21
725.4295181116736
 31
0.0
 12
877.4397441512242
 22
720.7154729037624
 32
0.0
 13
877.4397441512242
 23
720.7154729037624
 33
0.0
  0
MTEXT
  5
280
330
282
100
AcDbEntity
  8
0
  6
BYBLOCK
 62
     0
100
AcDbMText
 10
1020.857131131449
 20
582.0121311314489
 30
0.0
 40
20.0
 41
0.0
 71
     5
 72
     1
  1
\A1;438.98
 11
0.7071067811865476
 21
-0.7071067811865475
 31
0.0
  0
ENDBLK
  5
6340
330
282
100
AcDbEntity
  8
0
100
AcDbBlockEnd
  0
BLOCK
  5
6341
330
28F
100
AcDbEntity
  8
0
100
AcDbBlockBegin
  2
*D11
 70
     1
 71
     0
 10
0.0
 20
0.0
 30
0.0
  3
*D11
  1

  0
MTEXT
  5
285
330
28F
100
AcDbEntity
  8
0
  6
BYBLOCK
 62
     0
100
AcDbMText
 10
784.8135266251778
 20
618.9442810303179
 30
0.0
 40
20.0
 41
0.0
 71
     5
 72
     1
  1
\A1;135.00%%d
 11
0.9238795325112866
 21
-0.3826834323650902
 31
0.0
  0
SOLID
  5
28A
330
28F
100
AcDbEntity
  8
0
  6
BYBLOCK
 62
     0
100
AcDbTrace
 10
742.1197721551413
 20
682.84
 30
0.0
 11
748.3099122722762
 21
663.5321446959702
 31
0.0
 12
741.7133029781497
 22
662.5681995392795
 32
0.0
 13
741.7133029781497
 23
662.5681995392795
 33
0.0
  0
SOLID
  5
28B
330
28F
100
AcDbEntity
  8
0
  6
BYBLOCK
 62
     0
100
AcDbTrace
 10
860.1836660975063
 20
633.9363339024937
 30
0.0
 11
846.1367556362642
 21
619.3145892184637
 31
0.0
 12
842.1538606285371
 22
624.6607085401665
 32
0.0
 13
842.1538606285371
 23
624.6607085401665
 33
0.0
  0
ARC
  5
28C
330
28F
100
AcDbEntity
  8
0
  6
BYBLOCK
 62
     0
100
AcDbCircle
 10
811.28
 20
682.84
 30
0.0
 40
69.16022784485867
100
AcDbArc
 50
196.6272808345875
 51
216.1612086229144
  0
ARC
  5
28D
330
28F
100
AcDbEntity
  8
0
  6
BYBLOCK
 62
     0
100
AcDbCircle
 10
811.28
 20
682.84
 30
0.0
 40
69.16022784485867
100
AcDbArc
 50
278.8387913770855
 51
298.3727191654124
  0
ENDBLK
  5
6342
330
28F
100
AcDbEntity
  8
0
100
AcDbBlockEnd
  0
BLOCK
  5
6343
330
29C
100
AcDbEntity
  8
0
100
AcDbBlockBegin
  2
*D12
 70
     1
 71
     0
 10
0.0
 20
0.0
 30
0.0
  3
*D12
  1

  0
MTEXT
  5
292
330
29C
100
AcDbEntity
  8
0
  6
BYBLOCK
 62
     0
100
AcDbMText
 10
1012.386375576148
 20
372.435
 30
0.0
 40
20.0
 41
0.0
 71
     5
 72
     1
  1
\A1;90.00%%d
 11
5.053195275411815E-16
 21
1.0
 31
0.0
  0
SOLID
  5
297
330
29C
100
AcDbEntity
  8
0
  6
BYBLOCK
 62
     0
100
AcDbTrace
 10
1044.399201495533
 20
449.7207985044672
 30
0.0
 11
1034.173066531458
 21
432.2125925767416
 31
0.0
 12
1029.047493525929
 22
436.4755663990222
 32
0.0
 13
1029.047493525929
 23
436.4755663990222
 33
0.0
  0
SOLID
  5
298
330
29C
100
AcDbEntity
  8
0
  6
BYBLOCK
 62
     0
100
AcDbTrace
 10
1044.399201495533
 20
295.1492014955327
 30
0.0
 11
1029.047493525929
 21
308.3944336009777
 31
0.0
 12
1034.173066531458
 22
312.6574074232583
 32
0.0
 13
1034.173066531458
 23
312.6574074232583
 33
0.0
  0
ARC
  5
299
330
29C
100
AcDbEntity
  8
0
  6
BYBLOCK
 62
     0
100
AcDbCircle
 10
1121.685
 20
372.435
 30
0.0
 40
109.2986244238518
100
AcDbArc
 50
145.4989460492503
 51
157.6342808100897
  0
ARC
  5
29A
330
29C
100
AcDbEntity
  8
0
  6
BYBLOCK
 62
     0
100
AcDbCircle
 10
1121.685
 20
372.435
 30
0.0
 40
109.2986244238518
100
AcDbArc
 50
202.3657191899103
 51
214.5010539507497
  0
ENDBLK
  5
6344
330
29C
100
AcDbEntity
  8
0
100
AcDbBlockEnd
  0
BLOCK
  5
6345
330
2A9
100
AcDbEntity
  8
0
100
AcDbBlockBegin
  2
*D13
 70
     1
 71
     0
 10
0.0
 20
0.0
 30
0.0
  3
*D13
  1

  0
MTEXT
  5
29F
330
2A9
100
AcDbEntity
  8
0
  6
BYBLOCK
 62
     0
100
AcDbMText
 10
75.44218918630645
 20
607.3978108136936
 30
0.0
 40
20.0
 41
0.0
 71
     5
 72
     1
  1
\A1;90.00%%d
 11
0.7071067811865476
 21
0.7071067811865475
 31
0.0
  0
SOLID
  5
2A4
330
2A9
100
AcDbEntity
  8
0
  6
BYBLOCK
 62
     0
100
AcDbTrace
 10
106.6913671223915
 20
682.84
 30
0.0
 11
108.1354605884899
 21
662.6156160743451
 31
0.0
 12
101.4981418306493
 22
663.2404713786192
 32
0.0
 13
101.4981418306493
 23
663.2404713786192
 33
0.0
  0
SOLID
  5
2A5
330
2A9
100
AcDbEntity
  8
0
  6
BYBLOCK
 62
     0
100
AcDbTrace
 10
-0.0000000000000196
 20
576.1486328776086
 30
0.0
 11
19.59952862138079
 21
581.3418581693508
 31
0.0
 12
20.22438392565486
 22
574.7045394115102
 32
0.0
 13
20.22438392565486
 23
574.7045394115102
 33
0.0
  0
ARC
  5
2A6
330
2A9
100
AcDbEntity
  8
0
  6
BYBLOCK
 62
     0
100
AcDbCircle
 10
0.0
 20
682.84
 30
0.0
 40
106.6913671223915
100
AcDbArc
 50
280.7562598460863
 51
292.0569502761878
  0
ARC
  5
2A7
330
2A9
100
AcDbEntity
  8
0
  6
BYBLOCK
 62
     0
100
AcDbCircle
 10
0.0
 20
682.84
 30
0.0
 40
106.6913671223915
100
AcDbArc
 50
337.9430497238122
 51
349.2437401539137
  0
ENDBLK
  5
6346
330
2A9
100
AcDbEntity
  8
0
100
AcDbBlockEnd
  0
BLOCK
  5
6347
330
2B6
100
AcDbEntity
  8
0
100
AcDbBlockBegin
  2
*D14
 70
     1
 71
     0
 10
0.0
 20
0.0
 30
0.0
  3
*D14
  1

  0
MTEXT
  5
2AC
330
2B6
100
AcDbEntity
  8
0
  6
BYBLOCK
 62
     0
100
AcDbMText
 10
75.77771756444911
 20
75.77771756444909
 30
0.0
 40
20.0
 41
0.0
 71
     5
 72
     1
  1
\A1;90.00%%d
 11
0.7071067811865476
 21
-0.7071067811865475
 31
0.0
  0
SOLID
  5
2B1
330
2B6
100
AcDbEntity
  8
0
  6
BYBLOCK
 62
     0
100
AcDbTrace
 10
107.1658759053218
 20
0.0
 30
0.0
 11
101.9808208685745
 21
19.60169164579979
 31
0.0
 12
108.6183995124432
 22
20.22378021740423
 32
0.0
 13
108.6183995124432
 23
20.22378021740423
 33
0.0
  0
SOLID
  5
2B2
330
2B6
100
AcDbEntity
  8
0
  6
BYBLOCK
 62
     0
100
AcDbTrace
 10
0.0000000000000066
 20
107.1658759053218
 30
0.0
 11
20.22378021740424
 21
108.6183995124432
 31
0.0
 12
19.6016916457998
 22
101.9808208685745
 32
0.0
 13
19.6016916457998
 23
101.9808208685745
 33
0.0
  0
ARC
  5
2B3
330
2B6
100
AcDbEntity
  8
0
  6
BYBLOCK
 62
     0
100
AcDbCircle
 10
0.0
 20
0.0
 30
0.0
 40
107.1658759053218
100
AcDbArc
 50
10.70849387157981
 51
22.16429705529168
  0
ARC
  5
2B4
330
2B6
100
AcDbEntity
  8
0
  6
BYBLOCK
 62
     0
100
AcDbCircle
 10
0.0
 20
0.0
 30
0.0
 40
107.1658759053218
100
AcDbArc
 50
67.83570294470832
 51
79.2915061284202
  0
ENDBLK
  5
6348
330
2B6
100
AcDbEntity
  8
0
100
AcDbBlockEnd
  0
BLOCK
  5
6349
330
2C3
100
AcDbEntity
  8
0
100
AcDbBlockBegin
  2
*D15
 70
     1
 71
     0
 10
0.0
 20
0.0
 30
0.0
  3
*D15
  1

  0
MTEXT
  5
2B9
330
2C3
100
AcDbEntity
  8
0
  6
BYBLOCK
 62
     0
100
AcDbMText
 10
718.5788615509656
 20
74.04667841708162
 30
0.0
 40
20.0
 41
0.0
 71
     5
 72
     1
  1
\A1;135.00%%d
 11
0.9238795325112865
 21
0.3826834323650904
 31
0.0
  0
SOLID
  5
2BE
330
2C3
100
AcDbEntity
  8
0
  6
BYBLOCK
 62
     0
100
AcDbTrace
 10
805.9228741037656
 20
56.67287410376562
 30
0.0
 11
788.0822179775787
 21
66.30729676930528
 31
0.0
 12
792.1712553894405
 22
71.57267590939168
 32
0.0
 13
792.1712553894405
 23
71.57267590939168
 33
0.0
  0
SOLID
  5
2BF
330
2C3
100
AcDbEntity
  8
0
  6
BYBLOCK
 62
     0
100
AcDbTrace
 10
669.1024528237917
 20
0.0000000000000098
 30
0.0
 11
668.2905647738891
 21
20.25961374028491
 31
0.0
 12
674.9051361518153
 22
19.42781452726459
 32
0.0
 13
674.9051361518153
 23
19.42781452726459
 33
0.0
  0
ARC
  5
2C0
330
2C3
100
AcDbEntity
  8
0
  6
BYBLOCK
 62
     0
100
AcDbCircle
 10
749.25
 20
0.0
 30
0.0
 40
80.14754717620831
100
AcDbArc
 50
59.3349339067597
 51
83.43948722214608
  0
ARC
  5
2C1
330
2C3
100
AcDbEntity
  8
0
  6
BYBLOCK
 62
     0
100
AcDbCircle
 10
749.25
 20
0.0
 30
0.0
 40
80.14754717620831
100
AcDbArc
 50
141.560512777854
 51
165.6650660932403
  0
ENDBLK
  5
634A
330
2C3
100
AcDbEntity
  8
0
100
AcDbBlockEnd
  0
BLOCK
  5
634B
330
2D0
100
AcDbEntity
  8
0
100
AcDbBlockBegin
  2
*D16
 70
     1
 71
     0
 10
0.0
 20
0.0
 30
0.0
  3
*D16
  1

  0
LINE
  5
2C8
330
2D0
100
AcDbEntity
  8
0
  6
BYBLOCK
 62
     0
100
AcDbLine
 10
1421.640805826176
 20
372.4791941738241
 30
0.0
 11
1383.539299222494
 21
410.5807007775057
 31
0.0
  0
LINE
  5
2C9
330
2D0
100
AcDbEntity
  8
0
  6
BYBLOCK
 62
     0
100
AcDbLine
 10
1049.205805826176
 20
0.0441941738240756
 30
0.0
 11
1011.104299222494
 21
38.14570077750577
 31
0.0
  0
LINE
  5
2CA
330
2D0
100
AcDbEntity
  8
0
  6
BYBLOCK
 62
     0
100
AcDbLine
 10
1369.524442819377
 20
396.3112859331612
 30
0.0
 11
1231.665975584725
 21
258.4528186985092
 31
0.0
  0
SOLID
  5
2CB
330
2D0
100
AcDbEntity
  8
0
  6
BYBLOCK
 62
     0
100
AcDbTrace
 10
1383.666578443108
 20
410.4534215568922
 30
0.0
 11
1367.167420215421
 21
398.6683085371168
 31
0.0
 12
1371.881465423332
 22
393.9542633292056
 32
0.0
 13
1371.881465423332
 23
393.9542633292056
 33
0.0
  0
LINE
  5
2CC
330
2D0
100
AcDbEntity
  8
0
  6
BYBLOCK
 62
     0
100
AcDbLine
 10
1025.373714066839
 20
52.16055718062314
 30
0.0
 11
1163.232181301491
 21
190.0190244152751
 31
0.0
  0
SOLID
  5
2CD
330
2D0
100
AcDbEntity
  8
0
  6
BYBLOCK
 62
     0
100
AcDbTrace
 10
1011.231578443108
 20
38.01842155689219
 30
0.0
 11
1023.016691462883
 21
54.51757978457876
 31
0.0
 12
1027.730736670794
 22
49.80353457666751
 32
0.0
 13
1027.730736670794
 23
49.80353457666751
 33
0.0
  0
MTEXT
  5
2CE
330
2D0
100
AcDbEntity
  8
0
  6
BYBLOCK
 62
     0
100
AcDbMText
 10
1197.449078443108
 20
224.2359215568922
 30
0.0
 40
20.0
 41
0.0
 71
     5
 72
     1
  1
\A1;526.70
 11
0.7071067811865476
 21
0.7071067811865475
 31
0.0
  0
ENDBLK
  5
634C
330
2D0
100
AcDbEntity
  8
0
100
AcDbBlockEnd
  0
BLOCK
  5
634D
330
2DC
100
AcDbEntity
  8
0
100
AcDbBlockBegin
  2
*D17
 70
     1
 71
     0
 10
0.0
 20
0.0
 30
0.0
  3
*D17
  1

  0
LINE
  5
2D4
330
2DC
100
AcDbEntity
  8
0
  6
BYBLOCK
 62
     0
100
AcDbLine
 10
1421.640805826176
 20
372.4791941738241
 30
0.0
 11
1383.539299222494
 21
410.5807007775057
 31
0.0
  0
LINE
  5
2D5
330
2DC
100
AcDbEntity
  8
0
  6
BYBLOCK
 62
     0
100
AcDbLine
 10
1049.205805826176
 20
0.0441941738240756
 30
0.0
 11
1011.104299222494
 21
38.14570077750577
 31
0.0
  0
LINE
  5
2D6
330
2DC
100
AcDbEntity
  8
0
  6
BYBLOCK
 62
     0
100
AcDbLine
 10
1369.524442819377
 20
396.3112859331612
 30
0.0
 11
1231.665975584725
 21
258.4528186985092
 31
0.0
  0
SOLID
  5
2D7
330
2DC
100
AcDbEntity
  8
0
  6
BYBLOCK
 62
     0
100
AcDbTrace
 10
1383.666578443108
 20
410.4534215568922
 30
0.0
 11
1367.167420215421
 21
398.6683085371168
 31
0.0
 12
1371.881465423332
 22
393.9542633292056
 32
0.0
 13
1371.881465423332
 23
393.9542633292056
 33
0.0
  0
LINE
  5
2D8
330
2DC
100
AcDbEntity
  8
0
  6
BYBLOCK
 62
     0
100
AcDbLine
 10
1025.373714066839
 20
52.16055718062314
 30
0.0
 11
1163.232181301491
 21
190.0190244152752
 31
0.0
  0
SOLID
  5
2D9
330
2DC
100
AcDbEntity
  8
0
  6
BYBLOCK
 62
     0
100
AcDbTrace
 10
1011.231578443108
 20
38.0184215568922
 30
0.0
 11
1023.016691462883
 21
54.51757978457877
 31
0.0
 12
1027.730736670794
 22
49.80353457666752
 32
0.0
 13
1027.730736670794
 23
49.80353457666752
 33
0.0
  0
MTEXT
  5
2DA
330
2DC
100
AcDbEntity
  8
0
  6
BYBLOCK
 62
     0
100
AcDbMText
 10
1197.449078443108
 20
224.2359215568922
 30
0.0
 40
20.0
 41
0.0
 71
     5
 72
     1
  1
\A1;526.70
 11
0.7071067811865476
 21
0.7071067811865475
 31
0.0
  0
ENDBLK
  5
634E
330
2DC
100
AcDbEntity
  8
0
100
AcDbBlockEnd
  0
BLOCK
  5
634F
330
2E9
100
AcDbEntity
  8
0
100
AcDbBlockBegin
  2
*D18
 70
     1
 71
     0
 10
0.0
 20
0.0
 30
0.0
  3
*D18
  1

  0
LINE
  5
2E1
330
2E9
100
AcDbEntity
  8
0
  6
BYBLOCK
 62
     0
100
AcDbLine
 10
1732.134194173824
 20
62.07419417382405
 30
0.0
 11
1799.643246356004
 21
129.5832463560043
 31
0.0
  0
LINE
  5
2E2
330
2E9
100
AcDbEntity
  8
0
  6
BYBLOCK
 62
     0
100
AcDbLine
 10
1421.729194173824
 20
372.4791941738243
 30
0.0
 11
1489.238246356004
 21
439.9882463560045
 31
0.0
  0
LINE
  5
2E3
330
2E9
100
AcDbEntity
  8
0
  6
BYBLOCK
 62
     0
100
AcDbLine
 10
1785.37383151166
 20
143.5981027591217
 30
0.0
 11
1679.732445805025
 21
249.2394884657567
 31
0.0
  0
SOLID
  5
2E4
330
2E9
100
AcDbEntity
  8
0
  6
BYBLOCK
 62
     0
100
AcDbTrace
 10
1799.515967135391
 20
129.4559671353907
 30
0.0
 11
1787.730854115615
 21
145.9551253630773
 31
0.0
 12
1783.016808907704
 22
141.241080155166
 32
0.0
 13
1783.016808907704
 23
141.241080155166
 33
0.0
  0
LINE
  5
2E5
330
2E9
100
AcDbEntity
  8
0
  6
BYBLOCK
 62
     0
100
AcDbLine
 10
1503.253102759121
 20
425.71883151166
 30
0.0
 11
1608.894488465756
 21
320.077445805025
 31
0.0
  0
SOLID
  5
2E6
330
2E9
100
AcDbEntity
  8
0
  6
BYBLOCK
 62
     0
100
AcDbTrace
 10
1489.11096713539
 20
439.860967135391
 30
0.0
 11
1505.610125363077
 21
428.0758541156156
 31
0.0
 12
1500.896080155166
 22
423.3618089077044
 32
0.0
 13
1500.896080155166
 23
423.3618089077044
 33
0.0
  0
MTEXT
  5
2E7
330
2E9
100
AcDbEntity
  8
0
  6
BYBLOCK
 62
     0
100
AcDbMText
 10
1644.313467135391
 20
284.6584671353908
 30
0.0
 40
20.0
 41
0.0
 71
     5
 72
     1
  1
\A1;438.98
 11
0.7071067811865476
 21
-0.7071067811865475
 31
0.0
  0
ENDBLK
  5
6350
330
2E9
100
AcDbEntity
  8
0
100
AcDbBlockEnd
  0
BLOCK
  5
6351
330
2F5
100
AcDbEntity
  8
0
100
AcDbBlockBegin
  2
*D19
 70
     1
 71
     0
 10
0.0
 20
0.0
 30
0.0
  3
*D19
  1

  0
LINE
  5
2ED
330
2F5
100
AcDbEntity
  8
0
  6
BYBLOCK
 62
     0
100
AcDbLine
 10
1732.134194173824
 20
62.07419417382405
 30
0.0
 11
1799.643246356004
 21
129.5832463560043
 31
0.0
  0
LINE
  5
2EE
330
2F5
100
AcDbEntity
  8
0
  6
BYBLOCK
 62
     0
100
AcDbLine
 10
1421.729194173824
 20
372.4791941738243
 30
0.0
 11
1489.238246356004
 21
439.9882463560046
 31
0.0
  0
LINE
  5
2EF
330
2F5
100
AcDbEntity
  8
0
  6
BYBLOCK
 62
     0
100
AcDbLine
 10
1785.37383151166
 20
143.5981027591217
 30
0.0
 11
1679.732445805025
 21
249.2394884657567
 31
0.0
  0
SOLID
  5
2F0
330
2F5
100
AcDbEntity
  8
0
  6
BYBLOCK
 62
     0
100
AcDbTrace
 10
1799.515967135391
 20
129.4559671353908
 30
0.0
 11
1787.730854115615
 21
145.9551253630773
 31
0.0
 12
1783.016808907704
 22
141.2410801551661
 32
0.0
 13
1783.016808907704
 23
141.2410801551661
 33
0.0
  0
LINE
  5
2F1
330
2F5
100
AcDbEntity
  8
0
  6
BYBLOCK
 62
     0
100
AcDbLine
 10
1503.253102759121
 20
425.7188315116601
 30
0.0
 11
1608.894488465756
 21
320.0774458050251
 31
0.0
  0
SOLID
  5
2F2
330
2F5
100
AcDbEntity
  8
0
  6
BYBLOCK
 62
     0
100
AcDbTrace
 10
1489.11096713539
 20
439.860967135391
 30
0.0
 11
1505.610125363077
 21
428.0758541156157
 31
0.0
 12
1500.896080155166
 22
423.3618089077044
 32
0.0
 13
1500.896080155166
 23
423.3618089077044
 33
0.0
  0
MTEXT
  5
2F3
330
2F5
100
AcDbEntity
  8
0
  6
BYBLOCK
 62
     0
100
AcDbMText
 10
1644.313467135391
 20
284.6584671353909
 30
0.0
 40
20.0
 41
0.0
 71
     5
 72
     1
  1
\A1;438.98
 11
0.7071067811865476
 21
-0.7071067811865475
 31
0.0
  0
ENDBLK
  5
6352
330
2F5
100
AcDbEntity
  8
0
100
AcDbBlockEnd
  0
BLOCK
  5
6353
330
301
100
AcDbEntity
  8
0
100
AcDbBlockBegin
  2
*D20
 70
     1
 71
     0
 10
0.0
 20
0.0
 30
0.0
  3
*D20
  1

  0
LINE
  5
2F9
330
301
100
AcDbEntity
  8
0
  6
BYBLOCK
 62
     0
100
AcDbLine
 10
1421.640805826176
 20
372.4791941738241
 30
0.0
 11
1383.539299222494
 21
410.5807007775057
 31
0.0
  0
LINE
  5
2FA
330
301
100
AcDbEntity
  8
0
  6
BYBLOCK
 62
     0
100
AcDbLine
 10
1049.205805826176
 20
0.0441941738240756
 30
0.0
 11
1011.104299222494
 21
38.14570077750578
 31
0.0
  0
LINE
  5
2FB
330
301
100
AcDbEntity
  8
0
  6
BYBLOCK
 62
     0
100
AcDbLine
 10
1369.524442819377
 20
396.3112859331612
 30
0.0
 11
1231.665975584725
 21
258.4528186985092
 31
0.0
  0
SOLID
  5
2FC
330
301
100
AcDbEntity
  8
0
  6
BYBLOCK
 62
     0
100
AcDbTrace
 10
1383.666578443108
 20
410.4534215568922
 30
0.0
 11
1367.167420215421
 21
398.6683085371168
 31
0.0
 12
1371.881465423332
 22
393.9542633292056
 32
0.0
 13
1371.881465423332
 23
393.9542633292056
 33
0.0
  0
LINE
  5
2FD
330
301
100
AcDbEntity
  8
0
  6
BYBLOCK
 62
     0
100
AcDbLine
 10
1025.373714066839
 20
52.16055718062315
 30
0.0
 11
1163.232181301491
 21
190.0190244152752
 31
0.0
  0
SOLID
  5
2FE
330
301
100
AcDbEntity
  8
0
  6
BYBLOCK
 62
     0
100
AcDbTrace
 10
1011.231578443108
 20
38.0184215568922
 30
0.0
 11
1023.016691462883
 21
54.51757978457878
 31
0.0
 12
1027.730736670794
 22
49.80353457666752
 32
0.0
 13
1027.730736670794
 23
49.80353457666752
 33
0.0
  0
MTEXT
  5
2FF
330
301
100
AcDbEntity
  8
0
  6
BYBLOCK
 62
     0
100
AcDbMText
 10
1197.449078443108
 20
224.2359215568922
 30
0.0
 40
20.0
 41
0.0
 71
     5
 72
     1
  1
\A1;526.70
 11
0.7071067811865476
 21
0.7071067811865475
 31
0.0
  0
ENDBLK
  5
6354
330
301
100
AcDbEntity
  8
0
100
AcDbBlockEnd
  0
BLOCK
  5
6355
330
30E
100
AcDbEntity
  8
0
100
AcDbBlockBegin
  2
*D21
 70
     1
 71
     0
 10
0.0
 20
0.0
 30
0.0
  3
*D21
  1

  0
LINE
  5
306
330
30E
100
AcDbEntity
  8
0
  6
BYBLOCK
 62
     0
100
AcDbLine
 10
1049.1875
 20
0.0
 30
0.0
 11
982.5612013484522
 21
0.0
 31
0.0
  0
LINE
  5
307
330
30E
100
AcDbEntity
  8
0
  6
BYBLOCK
 62
     0
100
AcDbLine
 10
1049.184787525381
 20
-466.407287525381
 30
0.0
 11
982.5612013484522
 21
-466.407287525381
 31
0.0
  0
LINE
  5
308
330
30E
100
AcDbEntity
  8
0
  6
BYBLOCK
 62
     0
100
AcDbLine
 10
982.7412013484523
 20
-20.0
 30
0.0
 11
982.7412013484523
 21
-186.5136437626905
 31
0.0
  0
SOLID
  5
309
330
30E
100
AcDbEntity
  8
0
  6
BYBLOCK
 62
     0
100
AcDbTrace
 10
982.7412013484523
 20
0.0
 30
0.0
 11
979.4078680151183
 21
-20.0
 31
0.0
 12
986.0745346817862
 22
-20.0
 32
0.0
 13
986.0745346817862
 23
-20.0
 33
0.0
  0
LINE
  5
30A
330
30E
100
AcDbEntity
  8
0
  6
BYBLOCK
 62
     0
100
AcDbLine
 10
982.7412013484523
 20
-446.407287525381
 30
0.0
 11
982.7412013484523
 21
-279.8936437626904
 31
0.0
  0
SOLID
  5
30B
330
30E
100
AcDbEntity
  8
0
  6
BYBLOCK
 62
     0
100
AcDbTrace
 10
982.7412013484523
 20
-466.407287525381
 30
0.0
 11
979.4078680151183
 21
-446.407287525381
 31
0.0
 12
986.0745346817862
 22
-446.407287525381
 32
0.0
 13
986.0745346817862
 23
-446.407287525381
 33
0.0
  0
MTEXT
  5
30C
330
30E
100
AcDbEntity
  8
0
  6
BYBLOCK
 62
     0
100
AcDbMText
 10
982.7412013484523
 20
-233.2036437626905
 30
0.0
 40
20.0
 41
0.0
 71
     5
 72
     1
  1
\A1;466.41
 11
6.123031769111886E-17
 21
1.0
 31
0.0
  0
ENDBLK
  5
6356
330
30E
100
AcDbEntity
  8
0
100
AcDbBlockEnd
  0
BLOCK
  5
6357
330
31A
100
AcDbEntity
  8
0
100
AcDbBlockBegin
  2
*D22
 70
     1
 71
     0
 10
0.0
 20
0.0
 30
0.0
  3
*D22
  1

  0
LINE
  5
312
330
31A
100
AcDbEntity
  8
0
  6
BYBLOCK
 62
     0
100
AcDbLine
 10
1049.1875
 20
0.0
 30
0.0
 11
982.5612013484522
 21
0.0
 31
0.0
  0
LINE
  5
313
330
31A
100
AcDbEntity
  8
0
  6
BYBLOCK
 62
     0
100
AcDbLine
 10
1049.184787525381
 20
-466.407287525381
 30
0.0
 11
982.5612013484522
 21
-466.407287525381
 31
0.0
  0
LINE
  5
314
330
31A
100
AcDbEntity
  8
0
  6
BYBLOCK
 62
     0
100
AcDbLine
 10
982.7412013484523
 20
-20.0
 30
0.0
 11
982.7412013484523
 21
-186.5136437626905
 31
0.0
  0
SOLID
  5
315
330
31A
100
AcDbEntity
  8
0
  6
BYBLOCK
 62
     0
100
AcDbTrace
 10
982.7412013484523
 20
0.0
 30
0.0
 11
979.4078680151183
 21
-20.0
 31
0.0
 12
986.0745346817862
 22
-20.0
 32
0.0
 13
986.0745346817862
 23
-20.0
 33
0.0
  0
LINE
  5
316
330
31A
100
AcDbEntity
  8
0
  6
BYBLOCK
 62
     0
100
AcDbLine
 10
982.7412013484523
 20
-446.407287525381
 30
0.0
 11
982.7412013484523
 21
-279.8936437626904
 31
0.0
  0
SOLID
  5
317
330
31A
100
AcDbEntity
  8
0
  6
BYBLOCK
 62
     0
100
AcDbTrace
 10
982.7412013484523
 20
-466.407287525381
 30
0.0
 11
979.4078680151183
 21
-446.407287525381
 31
0.0
 12
986.0745346817862
 22
-446.407287525381
 32
0.0
 13
986.0745346817862
 23
-446.407287525381
 33
0.0
  0
MTEXT
  5
318
330
31A
100
AcDbEntity
  8
0
  6
BYBLOCK
 62
     0
100
AcDbMText
 10
982.7412013484523
 20
-233.2036437626905
 30
0.0
 40
20.0
 41
0.0
 71
     5
 72
     1
  1
\A1;466.41
 11
6.123031769111886E-17
 21
1.0
 31
0.0
  0
ENDBLK
  5
6358
330
31A
100
AcDbEntity
  8
0
100
AcDbBlockEnd
  0
BLOCK
  5
6359
330
327
100
AcDbEntity
  8
0
100
AcDbBlockBegin
  2
*D23
 70
     1
 71
     0
 10
0.0
 20
0.0
 30
0.0
  3
*D23
  1

  0
LINE
  5
31F
330
327
100
AcDbEntity
  8
0
  6
BYBLOCK
 62
     0
100
AcDbLine
 10
1732.1525
 20
-749.25
 30
0.0
 11
1935.281162050725
 21
-749.25
 31
0.0
  0
LINE
  5
320
330
327
100
AcDbEntity
  8
0
  6
BYBLOCK
 62
     0
100
AcDbLine
 10
1732.1525
 20
62.02999999999986
 30
0.0
 11
1935.281162050725
 21
62.02999999999986
 31
0.0
  0
LINE
  5
321
330
327
100
AcDbEntity
  8
0
  6
BYBLOCK
 62
     0
100
AcDbLine
 10
1935.101162050725
 20
-729.25
 30
0.0
 11
1935.101162050725
 21
-387.1
 31
0.0
  0
SOLID
  5
322
330
327
100
AcDbEntity
  8
0
  6
BYBLOCK
 62
     0
100
AcDbTrace
 10
1935.101162050725
 20
-749.25
 30
0.0
 11
1938.434495384058
 21
-729.25
 31
0.0
 12
1931.767828717391
 22
-729.25
 32
0.0
 13
1931.767828717391
 23
-729.25
 33
0.0
  0
LINE
  5
323
330
327
100
AcDbEntity
  8
0
  6
BYBLOCK
 62
     0
100
AcDbLine
 10
1935.101162050725
 20
42.02999999999986
 30
0.0
 11
1935.101162050725
 21
-300.1200000000001
 31
0.0
  0
SOLID
  5
324
330
327
100
AcDbEntity
  8
0
  6
BYBLOCK
 62
     0
100
AcDbTrace
 10
1935.101162050725
 20
62.02999999999986
 30
0.0
 11
1938.434495384058
 21
42.02999999999986
 31
0.0
 12
1931.767828717391
 22
42.02999999999986
 32
0.0
 13
1931.767828717391
 23
42.02999999999986
 33
0.0
  0
MTEXT
  5
325
330
327
100
AcDbEntity
  8
0
  6
BYBLOCK
 62
     0
100
AcDbMText
 10
1935.101162050725
 20
-343.6100000000001
 30
0.0
 40
20.0
 41
0.0
 71
     5
 72
     1
  1
\A1;811.28
 11
6.123031769111886E-17
 21
1.0
 31
0.0
  0
ENDBLK
  5
635A
330
327
100
AcDbEntity
  8
0
100
AcDbBlockEnd
  0
BLOCK
  5
635B
330
333
100
AcDbEntity
  8
0
100
AcDbBlockBegin
  2
*D24
 70
     1
 71
     0
 10
0.0
 20
0.0
 30
0.0
  3
*D24
  1

  0
LINE
  5
32B
330
333
100
AcDbEntity
  8
0
  6
BYBLOCK
 62
     0
100
AcDbLine
 10
1732.1525
 20
-749.25
 30
0.0
 11
1816.57996615836
 21
-749.25
 31
0.0
  0
LINE
  5
32C
330
333
100
AcDbEntity
  8
0
  6
BYBLOCK
 62
     0
100
AcDbLine
 10
1732.1525
 20
62.02999999999986
 30
0.0
 11
1816.57996615836
 21
62.02999999999986
 31
0.0
  0
LINE
  5
32D
330
333
100
AcDbEntity
  8
0
  6
BYBLOCK
 62
     0
100
AcDbLine
 10
1816.39996615836
 20
-729.25
 30
0.0
 11
1816.39996615836
 21
-362.8380890399938
 31
0.0
  0
SOLID
  5
32E
330
333
100
AcDbEntity
  8
0
  6
BYBLOCK
 62
     0
100
AcDbTrace
 10
1816.39996615836
 20
-749.25
 30
0.0
 11
1819.733299491694
 21
-729.25
 31
0.0
 12
1813.066632825026
 22
-729.25
 32
0.0
 13
1813.066632825026
 23
-729.25
 33
0.0
  0
LINE
  5
32F
330
333
100
AcDbEntity
  8
0
  6
BYBLOCK
 62
     0
100
AcDbLine
 10
1816.39996615836
 20
42.02999999999986
 30
0.0
 11
1816.39996615836
 21
-275.8580890399938
 31
0.0
  0
SOLID
  5
330
330
333
100
AcDbEntity
  8
0
  6
BYBLOCK
 62
     0
100
AcDbTrace
 10
1816.39996615836
 20
62.02999999999986
 30
0.0
 11
1819.733299491694
 21
42.02999999999986
 31
0.0
 12
1813.066632825026
 22
42.02999999999986
 32
0.0
 13
1813.066632825026
 23
42.02999999999986
 33
0.0
  0
MTEXT
  5
331
330
333
100
AcDbEntity
  8
0
  6
BYBLOCK
 62
     0
100
AcDbMText
 10
1816.39996615836
 20
-319.3480890399938
 30
0.0
 40
20.0
 41
0.0
 71
     5
 72
     1
  1
\A1;811.28
 11
6.123031769111886E-17
 21
1.0
 31
0.0
  0
ENDBLK
  5
635C
330
333
100
AcDbEntity
  8
0
100
AcDbBlockEnd
  0
BLOCK
  5
635D
330
340
100
AcDbEntity
  8
0
100
AcDbBlockBegin
  2
*D25
 70
     1
 71
     0
 10
0.0
 20
0.0
 30
0.0
  3
*D25
  1

  0
LINE
  5
338
330
340
100
AcDbEntity
  8
0
  6
BYBLOCK
 62
     0
100
AcDbLine
 10
1421.7475
 20
372.4350000000002
 30
0.0
 11
1886.063593022183
 21
372.4350000000002
 31
0.0
  0
LINE
  5
339
330
340
100
AcDbEntity
  8
0
  6
BYBLOCK
 62
     0
100
AcDbLine
 10
1732.1525
 20
-749.25
 30
0.0
 11
1886.063593022183
 21
-749.25
 31
0.0
  0
LINE
  5
33A
330
340
100
AcDbEntity
  8
0
  6
BYBLOCK
 62
     0
100
AcDbLine
 10
1885.883593022183
 20
352.4350000000002
 30
0.0
 11
1885.883593022183
 21
-138.2174999999999
 31
0.0
  0
SOLID
  5
33B
330
340
100
AcDbEntity
  8
0
  6
BYBLOCK
 62
     0
100
AcDbTrace
 10
1885.883593022183
 20
372.4350000000002
 30
0.0
 11
1882.550259688849
 21
352.4350000000002
 31
0.0
 12
1889.216926355517
 22
352.4350000000002
 32
0.0
 13
1889.216926355517
 23
352.4350000000002
 33
0.0
  0
LINE
  5
33C
330
340
100
AcDbEntity
  8
0
  6
BYBLOCK
 62
     0
100
AcDbLine
 10
1885.883593022183
 20
-729.25
 30
0.0
 11
1885.883593022183
 21
-238.5975
 31
0.0
  0
SOLID
  5
33D
330
340
100
AcDbEntity
  8
0
  6
BYBLOCK
 62
     0
100
AcDbTrace
 10
1885.883593022183
 20
-749.25
 30
0.0
 11
1882.550259688849
 21
-729.25
 31
0.0
 12
1889.216926355517
 22
-729.25
 32
0.0
 13
1889.216926355517
 23
-729.25
 33
0.0
  0
MTEXT
  5
33E
330
340
100
AcDbEntity
  8
0
  6
BYBLOCK
 62
     0
100
AcDbMText
 10
1885.883593022183
 20
-188.4074999999999
 30
0.0
 40
20.0
 41
0.0
 71
     5
 72
     1
  1
\A1;1121.69
 11
6.123031769111886E-17
 21
1.0
 31
0.0
  0
ENDBLK
  5
635E
330
340
100
AcDbEntity
  8
0
100
AcDbBlockEnd
  0
BLOCK
  5
635F
330
34D
100
AcDbEntity
  8
0
100
AcDbBlockBegin
  2
*D26
 70
     1
 71
     0
 10
0.0
 20
0.0
 30
0.0
  3
*D26
  1

  0
LINE
  5
345
330
34D
100
AcDbEntity
  8
0
  6
BYBLOCK
 62
     0
100
AcDbLine
 10
1732.09
 20
-749.3125
 30
0.0
 11
1732.09
 21
-855.1310461152953
 31
0.0
  0
LINE
  5
346
330
34D
100
AcDbEntity
  8
0
  6
BYBLOCK
 62
     0
100
AcDbLine
 10
1332.09
 20
-749.3125
 30
0.0
 11
1332.09
 21
-855.1310461152953
 31
0.0
  0
LINE
  5
347
330
34D
100
AcDbEntity
  8
0
  6
BYBLOCK
 62
     0
100
AcDbLine
 10
1712.09
 20
-854.9510461152952
 30
0.0
 11
1575.38
 21
-854.9510461152952
 31
0.0
  0
SOLID
  5
348
330
34D
100
AcDbEntity
  8
0
  6
BYBLOCK
 62
     0
100
AcDbTrace
 10
1732.09
 20
-854.9510461152952
 30
0.0
 11
1712.09
 21
-851.6177127819613
 31
0.0
 12
1712.09
 22
-858.2843794486291
 32
0.0
 13
1712.09
 23
-858.2843794486291
 33
0.0
  0
LINE
  5
349
330
34D
100
AcDbEntity
  8
0
  6
BYBLOCK
 62
     0
100
AcDbLine
 10
1352.09
 20
-854.9510461152952
 30
0.0
 11
1488.8
 21
-854.9510461152952
 31
0.0
  0
SOLID
  5
34A
330
34D
100
AcDbEntity
  8
0
  6
BYBLOCK
 62
     0
100
AcDbTrace
 10
1332.09
 20
-854.9510461152952
 30
0.0
 11
1352.09
 21
-851.6177127819613
 31
0.0
 12
1352.09
 22
-858.2843794486291
 32
0.0
 13
1352.09
 23
-858.2843794486291
 33
0.0
  0
MTEXT
  5
34B
330
34D
100
AcDbEntity
  8
0
  6
BYBLOCK
 62
     0
100
AcDbMText
 10
1532.09
 20
-854.9510461152952
 30
0.0
 40
20.0
 41
0.0
 71
     5
 72
     1
  1
\A1;400.00
  0
ENDBLK
  5
6360
330
34D
100
AcDbEntity
  8
0
100
AcDbBlockEnd
  0
BLOCK
  5
6361
330
35A
100
AcDbEntity
  8
0
100
AcDbBlockBegin
  2
*D27
 70
     1
 71
     0
 10
0.0
 20
0.0
 30
0.0
  3
*D27
  1

  0
LINE
  5
352
330
35A
100
AcDbEntity
  8
0
  6
BYBLOCK
 62
     0
100
AcDbLine
 10
1332.045805826176
 20
-749.2941941738242
 30
0.0
 11
1256.360853382594
 21
-824.9791466174058
 31
0.0
  0
LINE
  5
353
330
35A
100
AcDbEntity
  8
0
  6
BYBLOCK
 62
     0
100
AcDbLine
 10
1049.203093351557
 20
-466.4514816992052
 30
0.0
 11
973.5181409079753
 21
-542.1364341427868
 31
0.0
  0
LINE
  5
354
330
35A
100
AcDbEntity
  8
0
  6
BYBLOCK
 62
     0
100
AcDbLine
 10
1242.345996979477
 20
-810.7097317730613
 30
0.0
 11
1145.677428923464
 21
-714.0411637170485
 31
0.0
  0
SOLID
  5
355
330
35A
100
AcDbEntity
  8
0
  6
BYBLOCK
 62
     0
100
AcDbTrace
 10
1256.488132603208
 20
-824.8518673967923
 30
0.0
 11
1244.703019583433
 21
-808.3527091691057
 31
0.0
 12
1239.988974375521
 22
-813.0667543770169
 32
0.0
 13
1239.988974375521
 23
-813.0667543770169
 33
0.0
  0
LINE
  5
356
330
35A
100
AcDbEntity
  8
0
  6
BYBLOCK
 62
     0
100
AcDbLine
 10
987.7875557523199
 20
-556.1512905459042
 30
0.0
 11
1084.456123808333
 21
-652.8198586019171
 31
0.0
  0
SOLID
  5
357
330
35A
100
AcDbEntity
  8
0
  6
BYBLOCK
 62
     0
100
AcDbTrace
 10
973.645420128589
 20
-542.0091549221733
 30
0.0
 11
990.1445783562755
 21
-553.7942679419485
 31
0.0
 12
985.4305331483643
 22
-558.5083131498598
 32
0.0
 13
985.4305331483643
 23
-558.5083131498598
 33
0.0
  0
MTEXT
  5
358
330
35A
100
AcDbEntity
  8
0
  6
BYBLOCK
 62
     0
100
AcDbMText
 10
1115.066776365899
 20
-683.4305111594828
 30
0.0
 40
20.0
 41
0.0
 71
     5
 72
     1
  1
\A1;400.00
 11
0.7071067811865476
 21
-0.7071067811865475
 31
0.0
  0
ENDBLK
  5
6362
330
35A
100
AcDbEntity
  8
0
100
AcDbBlockEnd
  0
BLOCK
  5
6363
330
367
100
AcDbEntity
  8
0
100
AcDbBlockBegin
  2
*D28
 70
     1
 71
     0
 10
0.0
 20
0.0
 30
0.0
  3
*D28
  1

  0
LINE
  5
35F
330
367
100
AcDbEntity
  8
0
  6
BYBLOCK
 62
     0
100
AcDbLine
 10
1049.247287525381
 20
-466.469787525381
 30
0.0
 11
1049.247287525381
 21
-956.4613352917036
 31
0.0
  0
LINE
  5
360
330
367
100
AcDbEntity
  8
0
  6
BYBLOCK
 62
     0
100
AcDbLine
 10
1732.09
 20
-749.3125
 30
0.0
 11
1732.09
 21
-956.4613352917036
 31
0.0
  0
LINE
  5
361
330
367
100
AcDbEntity
  8
0
  6
BYBLOCK
 62
     0
100
AcDbLine
 10
1069.247287525381
 20
-956.2813352917035
 30
0.0
 11
1340.578643762691
 21
-956.2813352917035
 31
0.0
  0
SOLID
  5
362
330
367
100
AcDbEntity
  8
0
  6
BYBLOCK
 62
     0
100
AcDbTrace
 10
1049.247287525381
 20
-956.2813352917035
 30
0.0
 11
1069.247287525381
 21
-959.6146686250374
 31
0.0
 12
1069.247287525381
 22
-952.9480019583696
 32
0.0
 13
1069.247287525381
 23
-952.9480019583696
 33
0.0
  0
LINE
  5
363
330
367
100
AcDbEntity
  8
0
  6
BYBLOCK
 62
     0
100
AcDbLine
 10
1712.09
 20
-956.2813352917035
 30
0.0
 11
1440.758643762691
 21
-956.2813352917035
 31
0.0
  0
SOLID
  5
364
330
367
100
AcDbEntity
  8
0
  6
BYBLOCK
 62
     0
100
AcDbTrace
 10
1732.09
 20
-956.2813352917035
 30
0.0
 11
1712.09
 21
-959.6146686250374
 31
0.0
 12
1712.09
 22
-952.9480019583696
 32
0.0
 13
1712.09
 23
-952.9480019583696
 33
0.0
  0
MTEXT
  5
365
330
367
100
AcDbEntity
  8
0
  6
BYBLOCK
 62
     0
100
AcDbMText
 10
1390.668643762691
 20
-956.2813352917035
 30
0.0
 40
20.0
 41
0.0
 71
     5
 72
     1
  1
\A1;682.84
  0
ENDBLK
  5
6364
330
367
100
AcDbEntity
  8
0
100
AcDbBlockEnd
  0
BLOCK
  5
6365
330
374
100
AcDbEntity
  8
0
100
AcDbBlockBegin
  2
*D29
 70
     1
 71
     0
 10
0.0
 20
0.0
 30
0.0
  3
*D29
  1

  0
MTEXT
  5
36A
330
374
100
AcDbEntity
  8
0
  6
BYBLOCK
 62
     0
100
AcDbMText
 10
1421.685
 20
262.3692073015516
 30
0.0
 40
20.0
 41
0.0
 71
     5
 72
     1
  1
\A1;90.00%%d
  0
SOLID
  5
36F
330
374
100
AcDbEntity
  8
0
  6
BYBLOCK
 62
     0
100
AcDbTrace
 10
1343.856731606254
 20
294.6067316062542
 30
0.0
 11
1361.358385355898
 21
284.3693868753832
 31
0.0
 12
1357.092130105364
 22
279.2465448339233
 32
0.0
 13
1357.092130105364
 23
279.2465448339233
 33
0.0
  0
SOLID
  5
370
330
374
100
AcDbEntity
  8
0
  6
BYBLOCK
 62
     0
100
AcDbTrace
 10
1499.513268393745
 20
294.6067316062542
 30
0.0
 11
1486.277869894636
 21
279.2465448339233
 31
0.0
 12
1482.011614644101
 22
284.3693868753832
 32
0.0
 13
1482.011614644101
 23
284.3693868753832
 33
0.0
  0
ARC
  5
371
330
374
100
AcDbEntity
  8
0
  6
BYBLOCK
 62
     0
100
AcDbCircle
 10
1421.685
 20
372.4349999999997
 30
0.0
 40
110.0657926984482
100
AcDbArc
 50
235.4255641721771
 51
247.798507652906
  0
ARC
  5
372
330
374
100
AcDbEntity
  8
0
  6
BYBLOCK
 62
     0
100
AcDbCircle
 10
1421.685
 20
372.4349999999997
 30
0.0
 40
110.0657926984482
100
AcDbArc
 50
292.201492347094
 51
304.574435827823
  0
ENDBLK
  5
6366
330
374
100
AcDbEntity
  8
0
100
AcDbBlockEnd
  0
BLOCK
  5
6367
330
381
100
AcDbEntity
  8
0
100
AcDbBlockBegin
  2
*D30
 70
     1
 71
     0
 10
0.0
 20
0.0
 30
0.0
  3
*D30
  1

  0
MTEXT
  5
377
330
381
100
AcDbEntity
  8
0
  6
BYBLOCK
 62
     0
100
AcDbMText
 10
1645.471581856525
 20
26.15147645366888
 30
0.0
 40
20.0
 41
0.0
 71
     5
 72
     1
  1
\A1;135.00%%d
 11
0.3826834323650894
 21
-0.923879532511287
 31
0.0
  0
SOLID
  5
37C
330
381
100
AcDbEntity
  8
0
  6
BYBLOCK
 62
     0
100
AcDbTrace
 10
1665.795132877641
 20
128.324867122359
 30
0.0
 11
1655.837062989882
 21
110.6628186788282
 31
0.0
 12
1650.647105110236
 22
114.8471682880229
 32
0.0
 13
1650.647105110236
 23
114.8471682880229
 33
0.0
  0
SOLID
  5
37D
330
381
100
AcDbEntity
  8
0
  6
BYBLOCK
 62
     0
100
AcDbTrace
 10
1732.09
 20
-31.7251002001625
 30
0.0
 11
1711.848554603517
 21
-32.90620111554723
 31
0.0
 12
1712.55962703077
 22
-26.27756472126049
 32
0.0
 13
1712.55962703077
 23
-26.27756472126049
 33
0.0
  0
ARC
  5
37E
330
381
100
AcDbEntity
  8
0
  6
BYBLOCK
 62
     0
100
AcDbCircle
 10
1732.09
 20
62.02999999999989
 30
0.0
 40
93.75510020016239
100
AcDbArc
 50
147.2457289909233
 51
175.6737541154691
  0
ARC
  5
37F
330
381
100
AcDbEntity
  8
0
  6
BYBLOCK
 62
     0
100
AcDbCircle
 10
1732.09
 20
62.02999999999989
 30
0.0
 40
93.75510020016239
100
AcDbArc
 50
229.3262458845309
 51
257.7542710090767
  0
ENDBLK
  5
6368
330
381
100
AcDbEntity
  8
0
100
AcDbBlockEnd
  0
BLOCK
  5
6369
330
38E
100
AcDbEntity
  8
0
100
AcDbBlockBegin
  2
*D31
 70
     1
 71
     0
 10
0.0
 20
0.0
 30
0.0
  3
*D31
  1

  0
MTEXT
  5
384
330
38E
100
AcDbEntity
  8
0
  6
BYBLOCK
 62
     0
100
AcDbMText
 10
1134.977494911476
 20
-35.50978311269763
 30
0.0
 40
20.0
 41
0.0
 71
     5
 72
     1
  1
\A1;135.00%%d
 11
0.3826861188564253
 21
0.9238784197255643
 31
0.0
  0
SOLID
  5
389
330
38E
100
AcDbEntity
  8
0
  6
BYBLOCK
 62
     0
100
AcDbTrace
 10
1114.863063030573
 20
65.61306303057312
 30
0.0
 11
1129.996056864215
 21
52.11848601822914
 31
0.0
 12
1124.801437625959
 22
47.93992461339037
 32
0.0
 13
1124.801437625959
 23
47.93992461339037
 33
0.0
  0
SOLID
  5
38A
330
38E
100
AcDbEntity
  8
0
  6
BYBLOCK
 62
     0
100
AcDbTrace
 10
1049.249460358096
 20
-92.79088360510805
 30
0.0
 11
1068.773780255485
 21
-87.32169320290515
 31
0.0
 12
1069.492203094178
 22
-93.94953697515159
 32
0.0
 13
1069.492203094178
 23
-93.94953697515159
 33
0.0
  0
ARC
  5
38B
330
38E
100
AcDbEntity
  8
0
  6
BYBLOCK
 62
     0
100
AcDbCircle
 10
1049.25
 20
0.0
 30
0.0
 40
92.79088360667724
100
AcDbArc
 50
282.3731389263833
 51
310.5319506627358
  0
ARC
  5
38C
330
38E
100
AcDbEntity
  8
0
  6
BYBLOCK
 62
     0
100
AcDbCircle
 10
1049.25
 20
0.0
 30
0.0
 40
92.79088360667724
100
AcDbArc
 50
4.467716123457469
 51
32.6265278598101
  0
ENDBLK
  5
636A
330
38E
100
AcDbEntity
  8
0
100
AcDbBlockEnd
  0
BLOCK
  5
636B
330
39B
100
AcDbEntity
  8
0
100
AcDbBlockBegin
  2
*D32
 70
     1
 71
     0
 10
0.0
 20
0.0
 30
0.0
  3
*D32
  1

  0
MTEXT
  5
391
330
39B
100
AcDbEntity
  8
0
  6
BYBLOCK
 62
     0
100
AcDbMText
 10
1134.473159487603
 20
-431.1058658360465
 30
0.0
 40
20.0
 41
0.0
 71
     5
 72
     1
  1
\A1;135.00%%d
 11
0.3826807458705177
 21
-0.9238806452891977
 31
0.0
  0
SOLID
  5
396
330
39B
100
AcDbEntity
  8
0
  6
BYBLOCK
 62
     0
100
AcDbTrace
 10
1114.476267377167
 20
-531.6362673771664
 30
0.0
 11
1124.403359019414
 21
-513.9567888034769
 31
0.0
 12
1129.600644414003
 22
-518.1320335833249
 32
0.0
 13
1129.600644414003
 23
-518.1320335833249
 33
0.0
  0
SOLID
  5
397
330
39B
100
AcDbEntity
  8
0
  6
BYBLOCK
 62
     0
100
AcDbTrace
 10
1049.24782400835
 20
-374.1595795607846
 30
0.0
 11
1069.491315524855
 21
-373.014083016779
 31
0.0
 12
1068.768585132829
 22
-379.6414584569442
 32
0.0
 13
1068.768585132829
 23
-379.6414584569442
 33
0.0
  0
ARC
  5
398
330
39B
100
AcDbEntity
  8
0
  6
BYBLOCK
 62
     0
100
AcDbCircle
 10
1049.247287525381
 20
-466.407287525381
 30
0.0
 40
92.24770796615636
100
AcDbArc
 50
327.4466170022561
 51
355.451167028426
  0
ARC
  5
399
330
39B
100
AcDbEntity
  8
0
  6
BYBLOCK
 62
     0
100
AcDbCircle
 10
1049.247287525381
 20
-466.407287525381
 30
0.0
 40
92.24770796615636
100
AcDbArc
 50
49.54849975776741
 51
77.55304978393741
  0
ENDBLK
  5
636C
330
39B
100
AcDbEntity
  8
0
100
AcDbBlockEnd
  0
BLOCK
  5
636D
330
3A8
100
AcDbEntity
  8
0
100
AcDbBlockBegin
  2
*D33
 70
     1
 71
     0
 10
0.0
 20
0.0
 30
0.0
  3
*D33
  1

  0
MTEXT
  5
39E
330
3A8
100
AcDbEntity
  8
0
  6
BYBLOCK
 62
     0
100
AcDbMText
 10
1379.678048879661
 20
-634.3622869878485
 30
0.0
 40
20.0
 41
0.0
 71
     5
 72
     1
  1
\A1;135.00%%d
 11
0.9238795325112866
 21
-0.3826834323650902
 31
0.0
  0
SOLID
  5
3A3
330
3A8
100
AcDbEntity
  8
0
  6
BYBLOCK
 62
     0
100
AcDbTrace
 10
1456.443564473784
 20
-749.25
 30
0.0
 11
1451.512709086779
 21
-729.5828249038262
 31
0.0
 12
1458.157785084837
 22
-729.0467191078341
 32
0.0
 13
1458.157785084837
 23
-729.0467191078341
 33
0.0
  0
SOLID
  5
3A4
330
3A8
100
AcDbEntity
  8
0
  6
BYBLOCK
 62
     0
100
AcDbTrace
 10
1244.158751295869
 20
-661.3187512958689
 30
0.0
 11
1257.232491198411
 21
-645.8207373562765
 31
0.0
 12
1261.552185454358
 22
-650.8985996997827
 32
0.0
 13
1261.552185454358
 23
-650.8985996997827
 33
0.0
  0
ARC
  5
3A5
330
3A8
100
AcDbEntity
  8
0
  6
BYBLOCK
 62
     0
100
AcDbCircle
 10
1332.09
 20
-749.25
 30
0.0
 40
124.3535644737838
100
AcDbArc
 50
9.224940628451412
 51
44.26004295509605
  0
ARC
  5
3A6
330
3A8
100
AcDbEntity
  8
0
  6
BYBLOCK
 62
     0
100
AcDbCircle
 10
1332.09
 20
-749.25
 30
0.0
 40
124.3535644737838
100
AcDbArc
 50
90.73995704490392
 51
125.7750593715486
  0
ENDBLK
  5
636E
330
3A8
100
AcDbEntity
  8
0
100
AcDbBlockEnd
  0
BLOCK
  5
636F
330
3B5
100
AcDbEntity
  8
0
100
AcDbBlockBegin
  2
*D34
 70
     1
 71
     0
 10
0.0
 20
0.0
 30
0.0
  3
*D34
  1

  0
MTEXT
  5
3AB
330
3B5
100
AcDbEntity
  8
0
  6
BYBLOCK
 62
     0
100
AcDbMText
 10
1635.857945503338
 20
-653.0179455033376
 30
0.0
 40
20.0
 41
0.0
 71
     5
 72
     1
  1
\A1;90.00%%d
 11
0.7071067811865466
 21
0.7071067811865485
 31
0.0
  0
SOLID
  5
3B0
330
3B5
100
AcDbEntity
  8
0
  6
BYBLOCK
 62
     0
100
AcDbTrace
 10
1732.09
 20
-613.1573233957932
 30
0.0
 11
1712.388996341608
 21
-617.9512326526669
 31
0.0
 12
1711.89913407767
 22
-611.3025877225452
 32
0.0
 13
1711.89913407767
 23
-611.3025877225452
 33
0.0
  0
SOLID
  5
3B1
330
3B5
100
AcDbEntity
  8
0
  6
BYBLOCK
 62
     0
100
AcDbTrace
 10
1595.997323395793
 20
-749.25
 30
0.0
 11
1594.142587722545
 21
-729.0591340776703
 31
0.0
 12
1600.791232652667
 22
-729.5489963416079
 32
0.0
 13
1600.791232652667
 23
-729.5489963416079
 33
0.0
  0
ARC
  5
3B2
330
3B5
100
AcDbEntity
  8
0
  6
BYBLOCK
 62
     0
100
AcDbCircle
 10
1732.09
 20
-749.25
 30
0.0
 40
136.0926766042068
100
AcDbArc
 50
98.42770754562822
 51
117.2057005219562
  0
ARC
  5
3B3
330
3B5
100
AcDbEntity
  8
0
  6
BYBLOCK
 62
     0
100
AcDbCircle
 10
1732.09
 20
-749.25
 30
0.0
 40
136.0926766042068
100
AcDbArc
 50
152.7942994780439
 51
171.5722924543719
  0
ENDBLK
  5
6370
330
3B5
100
AcDbEntity
  8
0
100
AcDbBlockEnd
  0
BLOCK
  5
6371
330
3CA
100
AcDbEntity
  8
0
100
AcDbBlockBegin
  2
*D35
 70
     1
 71
     0
 10
0.0
 20
0.0
 30
0.0
  3
*D35
  1

  0
LINE
  5
3C2
330
3CA
100
AcDbEntity
  8
0
  6
BYBLOCK
 62
     0
100
AcDbLine
 10
-1252.15
 20
-0.0625
 30
0.0
 11
-1252.15
 21
-96.33794441264445
 31
0.0
  0
LINE
  5
3C3
330
3CA
100
AcDbEntity
  8
0
  6
BYBLOCK
 62
     0
100
AcDbLine
 10
-300.0
 20
-0.0625
 30
0.0
 11
-300.0
 21
-96.33794441264445
 31
0.0
  0
LINE
  5
3C4
330
3CA
100
AcDbEntity
  8
0
  6
BYBLOCK
 62
     0
100
AcDbLine
 10
-1232.15
 20
-96.15794441264444
 30
0.0
 11
-822.865
 21
-96.15794441264444
 31
0.0
  0
SOLID
  5
3C5
330
3CA
100
AcDbEntity
  8
0
  6
BYBLOCK
 62
     0
100
AcDbTrace
 10
-1252.15
 20
-96.15794441264444
 30
0.0
 11
-1232.15
 21
-99.49127774597844
 31
0.0
 12
-1232.15
 22
-92.82461107931044
 32
0.0
 13
-1232.15
 23
-92.82461107931044
 33
0.0
  0
LINE
  5
3C6
330
3CA
100
AcDbEntity
  8
0
  6
BYBLOCK
 62
     0
100
AcDbLine
 10
-320.0
 20
-96.15794441264444
 30
0.0
 11
-729.2850000000001
 21
-96.15794441264444
 31
0.0
  0
SOLID
  5
3C7
330
3CA
100
AcDbEntity
  8
0
  6
BYBLOCK
 62
     0
100
AcDbTrace
 10
-300.0
 20
-96.15794441264444
 30
0.0
 11
-320.0
 21
-99.49127774597844
 31
0.0
 12
-320.0
 22
-92.82461107931044
 32
0.0
 13
-320.0
 23
-92.82461107931044
 33
0.0
  0
MTEXT
  5
3C8
330
3CA
100
AcDbEntity
  8
0
  6
BYBLOCK
 62
     0
100
AcDbMText
 10
-776.0750000000001
 20
-96.15794441264444
 30
0.0
 40
20.0
 41
0.0
 71
     5
 72
     1
  1
\A1;952.15
  0
ENDBLK
  5
6372
330
3CA
100
AcDbEntity
  8
0
100
AcDbBlockEnd
  0
BLOCK
  5
6373
330
3D7
100
AcDbEntity
  8
0
100
AcDbBlockBegin
  2
*D36
 70
     1
 71
     0
 10
0.0
 20
0.0
 30
0.0
  3
*D36
  1

  0
LINE
  5
3CF
330
3D7
100
AcDbEntity
  8
0
  6
BYBLOCK
 62
     0
100
AcDbLine
 10
-299.9375000000001
 20
682.84
 30
0.0
 11
-193.3653918375279
 21
682.84
 31
0.0
  0
LINE
  5
3D0
330
3D7
100
AcDbEntity
  8
0
  6
BYBLOCK
 62
     0
100
AcDbLine
 10
-299.9375
 20
0.0
 30
0.0
 11
-193.3653918375279
 21
0.0
 31
0.0
  0
LINE
  5
3D1
330
3D7
100
AcDbEntity
  8
0
  6
BYBLOCK
 62
     0
100
AcDbLine
 10
-193.5453918375279
 20
662.84
 30
0.0
 11
-193.5453918375279
 21
391.51
 31
0.0
  0
SOLID
  5
3D2
330
3D7
100
AcDbEntity
  8
0
  6
BYBLOCK
 62
     0
100
AcDbTrace
 10
-193.5453918375279
 20
682.84
 30
0.0
 11
-196.8787251708619
 21
662.84
 31
0.0
 12
-190.2120585041939
 22
662.84
 32
0.0
 13
-190.2120585041939
 23
662.84
 33
0.0
  0
LINE
  5
3D3
330
3D7
100
AcDbEntity
  8
0
  6
BYBLOCK
 62
     0
100
AcDbLine
 10
-193.5453918375279
 20
20.0
 30
0.0
 11
-193.5453918375279
 21
291.33
 31
0.0
  0
SOLID
  5
3D4
330
3D7
100
AcDbEntity
  8
0
  6
BYBLOCK
 62
     0
100
AcDbTrace
 10
-193.5453918375279
 20
0.0
 30
0.0
 11
-196.8787251708619
 21
20.0
 31
0.0
 12
-190.2120585041939
 22
20.0
 32
0.0
 13
-190.2120585041939
 23
20.0
 33
0.0
  0
MTEXT
  5
3D5
330
3D7
100
AcDbEntity
  8
0
  6
BYBLOCK
 62
     0
100
AcDbMText
 10
-193.5453918375279
 20
341.42
 30
0.0
 40
20.0
 41
0.0
 71
     5
 72
     1
  1
\A1;682.84
 11
6.123031769111886E-17
 21
1.0
 31
0.0
  0
ENDBLK
  5
6374
330
3D7
100
AcDbEntity
  8
0
100
AcDbBlockEnd
  0
BLOCK
  5
6375
330
3EE
100
AcDbEntity
  8
0
100
AcDbBlockBegin
  2
*D37
 70
     1
 71
     0
 10
0.0
 20
0.0
 30
0.0
  3
*D37
  1

  0
LINE
  5
3E6
330
3EE
100
AcDbEntity
  8
0
  6
BYBLOCK
 62
     0
100
AcDbLine
 10
196.968426751748
 20
-456.569738495053
 30
0.0
 11
196.968426751748
 21
-370.8659245746427
 31
0.0
  0
LINE
  5
3E7
330
3EE
100
AcDbEntity
  8
0
  6
BYBLOCK
 62
     0
100
AcDbLine
 10
8.702000192080533
 20
-456.569738495053
 30
0.0
 11
8.702000192080533
 21
-370.8659245746427
 31
0.0
  0
LINE
  5
3E8
330
3EE
100
AcDbEntity
  8
0
  6
BYBLOCK
 62
     0
100
AcDbLine
 10
176.968426751748
 20
-371.0459245746427
 30
0.0
 11
149.6252134719143
 21
-371.0459245746427
 31
0.0
  0
SOLID
  5
3E9
330
3EE
100
AcDbEntity
  8
0
  6
BYBLOCK
 62
     0
100
AcDbTrace
 10
196.968426751748
 20
-371.0459245746427
 30
0.0
 11
176.968426751748
 21
-367.7125912413087
 31
0.0
 12
176.968426751748
 22
-374.3792579079767
 32
0.0
 13
176.968426751748
 23
-374.3792579079767
 33
0.0
  0
LINE
  5
3EA
330
3EE
100
AcDbEntity
  8
0
  6
BYBLOCK
 62
     0
100
AcDbLine
 10
28.70200019208053
 20
-371.0459245746427
 30
0.0
 11
56.04521347191428
 21
-371.0459245746427
 31
0.0
  0
SOLID
  5
3EB
330
3EE
100
AcDbEntity
  8
0
  6
BYBLOCK
 62
     0
100
AcDbTrace
 10
8.702000192080533
 20
-371.0459245746427
 30
0.0
 11
28.70200019208053
 21
-367.7125912413087
 31
0.0
 12
28.70200019208053
 22
-374.3792579079767
 32
0.0
 13
28.70200019208053
 23
-374.3792579079767
 33
0.0
  0
MTEXT
  5
3EC
330
3EE
100
AcDbEntity
  8
0
  6
BYBLOCK
 62
     0
100
AcDbMText
 10
102.8352134719143
 20
-371.0459245746427
 30
0.0
 40
20.0
 41
0.0
 71
     5
 72
     1
  1
\A1;188.27
  0
ENDBLK
  5
6376
330
3EE
100
AcDbEntity
  8
0
100
AcDbBlockEnd
  0
BLOCK
  5
6377
330
3FA
100
AcDbEntity
  8
0
100
AcDbBlockBegin
  2
*D38
 70
     1
 71
     0
 10
0.0
 20
0.0
 30
0.0
  3
*D38
  1

  0
LINE
  5
3F2
330
3FA
100
AcDbEntity
  8
0
  6
BYBLOCK
 62
     0
100
AcDbLine
 10
196.968426751748
 20
-456.569738495053
 30
0.0
 11
196.968426751748
 21
-370.8659245746427
 31
0.0
  0
LINE
  5
3F3
330
3FA
100
AcDbEntity
  8
0
  6
BYBLOCK
 62
     0
100
AcDbLine
 10
8.702000192080533
 20
-456.569738495053
 30
0.0
 11
8.702000192080533
 21
-370.8659245746427
 31
0.0
  0
LINE
  5
3F4
330
3FA
100
AcDbEntity
  8
0
  6
BYBLOCK
 62
     0
100
AcDbLine
 10
176.968426751748
 20
-371.0459245746427
 30
0.0
 11
149.6252134719143
 21
-371.0459245746427
 31
0.0
  0
SOLID
  5
3F5
330
3FA
100
AcDbEntity
  8
0
  6
BYBLOCK
 62
     0
100
AcDbTrace
 10
196.968426751748
 20
-371.0459245746427
 30
0.0
 11
176.968426751748
 21
-367.7125912413087
 31
0.0
 12
176.968426751748
 22
-374.3792579079767
 32
0.0
 13
176.968426751748
 23
-374.3792579079767
 33
0.0
  0
LINE
  5
3F6
330
3FA
100
AcDbEntity
  8
0
  6
BYBLOCK
 62
     0
100
AcDbLine
 10
28.70200019208053
 20
-371.0459245746427
 30
0.0
 11
56.04521347191428
 21
-371.0459245746427
 31
0.0
  0
SOLID
  5
3F7
330
3FA
100
AcDbEntity
  8
0
  6
BYBLOCK
 62
     0
100
AcDbTrace
 10
8.702000192080533
 20
-371.0459245746427
 30
0.0
 11
28.70200019208053
 21
-367.7125912413087
 31
0.0
 12
28.70200019208053
 22
-374.3792579079767
 32
0.0
 13
28.70200019208053
 23
-374.3792579079767
 33
0.0
  0
MTEXT
  5
3F8
330
3FA
100
AcDbEntity
  8
0
  6
BYBLOCK
 62
     0
100
AcDbMText
 10
102.8352134719143
 20
-371.0459245746427
 30
0.0
 40
20.0
 41
0.0
 71
     5
 72
     1
  1
\A1;188.27
  0
ENDBLK
  5
6378
330
3FA
100
AcDbEntity
  8
0
100
AcDbBlockEnd
  0
BLOCK
  5
6379
330
407
100
AcDbEntity
  8
0
100
AcDbBlockBegin
  2
*D39
 70
     1
 71
     0
 10
0.0
 20
0.0
 30
0.0
  3
*D39
  1

  0
LINE
  5
3FF
330
407
100
AcDbEntity
  8
0
  6
BYBLOCK
 62
     0
100
AcDbLine
 10
197.030926751748
 20
-1139.472238495053
 30
0.0
 11
328.5898226758352
 21
-1139.472238495053
 31
0.0
  0
LINE
  5
400
330
407
100
AcDbEntity
  8
0
  6
BYBLOCK
 62
     0
100
AcDbLine
 10
197.030926751748
 20
-456.632238495053
 30
0.0
 11
328.5898226758352
 21
-456.632238495053
 31
0.0
  0
LINE
  5
401
330
407
100
AcDbEntity
  8
0
  6
BYBLOCK
 62
     0
100
AcDbLine
 10
328.4098226758352
 20
-1119.472238495053
 30
0.0
 11
328.4098226758352
 21
-848.142238495053
 31
0.0
  0
SOLID
  5
402
330
407
100
AcDbEntity
  8
0
  6
BYBLOCK
 62
     0
100
AcDbTrace
 10
328.4098226758352
 20
-1139.472238495053
 30
0.0
 11
331.7431560091692
 21
-1119.472238495053
 31
0.0
 12
325.0764893425012
 22
-1119.472238495053
 32
0.0
 13
325.0764893425012
 23
-1119.472238495053
 33
0.0
  0
LINE
  5
403
330
407
100
AcDbEntity
  8
0
  6
BYBLOCK
 62
     0
100
AcDbLine
 10
328.4098226758352
 20
-476.632238495053
 30
0.0
 11
328.4098226758352
 21
-747.962238495053
 31
0.0
  0
SOLID
  5
404
330
407
100
AcDbEntity
  8
0
  6
BYBLOCK
 62
     0
100
AcDbTrace
 10
328.4098226758352
 20
-456.632238495053
 30
0.0
 11
331.7431560091692
 21
-476.632238495053
 31
0.0
 12
325.0764893425012
 22
-476.632238495053
 32
0.0
 13
325.0764893425012
 23
-476.632238495053
 33
0.0
  0
MTEXT
  5
405
330
407
100
AcDbEntity
  8
0
  6
BYBLOCK
 62
     0
100
AcDbMText
 10
328.4098226758352
 20
-798.052238495053
 30
0.0
 40
20.0
 41
0.0
 71
     5
 72
     1
  1
\A1;682.84
 11
6.123031769111886E-17
 21
1.0
 31
0.0
  0
ENDBLK
  5
637A
330
407
100
AcDbEntity
  8
0
100
AcDbBlockEnd
  0
BLOCK
  5
637B
330
414
100
AcDbEntity
  8
0
100
AcDbBlockBegin
  2
*D40
 70
     1
 71
     0
 10
0.0
 20
0.0
 30
0.0
  3
*D40
  1

  0
LINE
  5
40C
330
414
100
AcDbEntity
  8
0
  6
BYBLOCK
 62
     0
100
AcDbLine
 10
196.968426751748
 20
-1139.534738495053
 30
0.0
 11
196.968426751748
 21
-1272.188237023074
 31
0.0
  0
LINE
  5
40D
330
414
100
AcDbEntity
  8
0
  6
BYBLOCK
 62
     0
100
AcDbLine
 10
-298.531573248252
 20
-1139.534738495053
 30
0.0
 11
-298.531573248252
 21
-1272.188237023074
 31
0.0
  0
LINE
  5
40E
330
414
100
AcDbEntity
  8
0
  6
BYBLOCK
 62
     0
100
AcDbLine
 10
176.968426751748
 20
-1272.008237023074
 30
0.0
 11
-2.391573248251945
 21
-1272.008237023074
 31
0.0
  0
SOLID
  5
40F
330
414
100
AcDbEntity
  8
0
  6
BYBLOCK
 62
     0
100
AcDbTrace
 10
196.968426751748
 20
-1272.008237023074
 30
0.0
 11
176.968426751748
 21
-1268.67490368974
 31
0.0
 12
176.968426751748
 22
-1275.341570356408
 32
0.0
 13
176.968426751748
 23
-1275.341570356408
 33
0.0
  0
LINE
  5
410
330
414
100
AcDbEntity
  8
0
  6
BYBLOCK
 62
     0
100
AcDbLine
 10
-278.531573248252
 20
-1272.008237023074
 30
0.0
 11
-99.17157324825195
 21
-1272.008237023074
 31
0.0
  0
SOLID
  5
411
330
414
100
AcDbEntity
  8
0
  6
BYBLOCK
 62
     0
100
AcDbTrace
 10
-298.531573248252
 20
-1272.008237023074
 30
0.0
 11
-278.531573248252
 21
-1268.67490368974
 31
0.0
 12
-278.531573248252
 22
-1275.341570356408
 32
0.0
 13
-278.531573248252
 23
-1275.341570356408
 33
0.0
  0
MTEXT
  5
412
330
414
100
AcDbEntity
  8
0
  6
BYBLOCK
 62
     0
100
AcDbMText
 10
-50.78157324825196
 20
-1272.008237023074
 30
0.0
 40
20.0
 41
0.0
 71
     5
 72
     1
  1
\A1;495.50
  0
ENDBLK
  5
637C
330
414
100
AcDbEntity
  8
0
100
AcDbBlockEnd
  0
BLOCK
  5
637D
330
421
100
AcDbEntity
  8
0
100
AcDbBlockBegin
  2
*D41
 70
     1
 71
     0
 10
0.0
 20
0.0
 30
0.0
  3
*D41
  1

  0
LINE
  5
419
330
421
100
AcDbEntity
  8
0
  6
BYBLOCK
 62
     0
100
AcDbLine
 10
-298.5856998359885
 20
-1139.503488495053
 30
0.0
 11
-413.9768686556312
 21
-1206.124610875179
 31
0.0
  0
LINE
  5
41A
330
421
100
AcDbEntity
  8
0
  6
BYBLOCK
 62
     0
100
AcDbLine
 10
-517.4556998359884
 20
-760.4095282424528
 30
0.0
 11
-632.8468686556312
 21
-827.0306506225791
 31
0.0
  0
LINE
  5
41B
330
421
100
AcDbEntity
  8
0
  6
BYBLOCK
 62
     0
100
AcDbLine
 10
-423.82098408295
 20
-1188.714102799491
 30
0.0
 11
-498.21098408295
 21
-1059.866843224442
 31
0.0
  0
SOLID
  5
41C
330
421
100
AcDbEntity
  8
0
  6
BYBLOCK
 62
     0
100
AcDbTrace
 10
-413.82098408295
 20
-1206.034610875179
 30
0.0
 11
-420.9342327370013
 21
-1187.047436132824
 31
0.0
 12
-426.7077354288987
 22
-1190.380769466158
 32
0.0
 13
-426.7077354288987
 23
-1190.380769466158
 33
0.0
  0
LINE
  5
41D
330
421
100
AcDbEntity
  8
0
  6
BYBLOCK
 62
     0
100
AcDbLine
 10
-622.69098408295
 20
-844.2611586982679
 30
0.0
 11
-548.30098408295
 21
-973.1084182733166
 31
0.0
  0
SOLID
  5
41E
330
421
100
AcDbEntity
  8
0
  6
BYBLOCK
 62
     0
100
AcDbTrace
 10
-632.69098408295
 20
-826.9406506225791
 30
0.0
 11
-619.8042327370013
 21
-842.5944920316009
 31
0.0
 12
-625.5777354288987
 22
-845.9278253649349
 32
0.0
 13
-625.5777354288987
 23
-845.9278253649349
 33
0.0
  0
MTEXT
  5
41F
330
421
100
AcDbEntity
  8
0
  6
BYBLOCK
 62
     0
100
AcDbMText
 10
-523.25598408295
 20
-1016.487630748879
 30
0.0
 40
20.0
 41
0.0
 71
     5
 72
     1
  1
\A1;437.74
 11
0.4999999999999999
 21
-0.8660254037844387
 31
0.0
  0
ENDBLK
  5
637E
330
421
100
AcDbEntity
  8
0
100
AcDbBlockEnd
  0
BLOCK
  5
637F
330
42E
100
AcDbEntity
  8
0
100
AcDbBlockBegin
  2
*D42
 70
     1
 71
     0
 10
0.0
 20
0.0
 30
0.0
  3
*D42
  1

  0
LINE
  5
426
330
42E
100
AcDbEntity
  8
0
  6
BYBLOCK
 62
     0
100
AcDbLine
 10
-517.4328232482519
 20
-760.3241516547163
 30
0.0
 11
-564.8934941286385
 21
-678.1198583285818
 31
0.0
  0
LINE
  5
427
330
42E
100
AcDbEntity
  8
0
  6
BYBLOCK
 62
     0
100
AcDbLine
 10
8.67075019208059
 20
-456.5781119073164
 30
0.0
 11
-38.78992068830605
 21
-374.373818581182
 31
0.0
  0
LINE
  5
428
330
42E
100
AcDbEntity
  8
0
  6
BYBLOCK
 62
     0
100
AcDbLine
 10
-547.4829860529497
 20
-668.275742901263
 30
0.0
 11
-343.6586766976013
 21
-550.5977230275631
 31
0.0
  0
SOLID
  5
429
330
42E
100
AcDbEntity
  8
0
  6
BYBLOCK
 62
     0
100
AcDbTrace
 10
-564.8034941286385
 20
-678.275742901263
 30
0.0
 11
-545.8163193862828
 21
-671.1624942472117
 31
0.0
 12
-549.1496527196167
 22
-665.3889915553143
 32
0.0
 13
-549.1496527196167
 23
-665.3889915553143
 33
0.0
  0
LINE
  5
42A
330
42E
100
AcDbEntity
  8
0
  6
BYBLOCK
 62
     0
100
AcDbLine
 10
-56.02042876399482
 20
-384.5297031538632
 30
0.0
 11
-259.8447381193433
 21
-502.2077230275631
 31
0.0
  0
SOLID
  5
42B
330
42E
100
AcDbEntity
  8
0
  6
BYBLOCK
 62
     0
100
AcDbTrace
 10
-38.69992068830604
 20
-374.5297031538632
 30
0.0
 11
-54.35376209732782
 21
-387.416454499812
 31
0.0
 12
-57.68709543066181
 22
-381.6429518079145
 32
0.0
 13
-57.68709543066181
 23
-381.6429518079145
 33
0.0
  0
MTEXT
  5
42C
330
42E
100
AcDbEntity
  8
0
  6
BYBLOCK
 62
     0
100
AcDbMText
 10
-301.7517074084723
 20
-526.4027230275632
 30
0.0
 40
20.0
 41
0.0
 71
     5
 72
     1
  1
\A1;607.49
 11
0.8660254037844388
 21
0.4999999999999998
 31
0.0
  0
ENDBLK
  5
6380
330
42E
100
AcDbEntity
  8
0
100
AcDbBlockEnd
  0
BLOCK
  5
6381
330
43B
100
AcDbEntity
  8
0
100
AcDbBlockBegin
  2
*D43
 70
     1
 71
     0
 10
0.0
 20
0.0
 30
0.0
  3
*D43
  1

  0
LINE
  5
433
330
43B
100
AcDbEntity
  8
0
  6
BYBLOCK
 62
     0
100
AcDbLine
 10
196.968426751748
 20
-456.569738495053
 30
0.0
 11
196.968426751748
 21
-285.6397598835748
 31
0.0
  0
LINE
  5
434
330
43B
100
AcDbEntity
  8
0
  6
BYBLOCK
 62
     0
100
AcDbLine
 10
-517.4015732482519
 20
-760.3157782424528
 30
0.0
 11
-517.4015732482519
 21
-285.6397598835748
 31
0.0
  0
LINE
  5
435
330
43B
100
AcDbEntity
  8
0
  6
BYBLOCK
 62
     0
100
AcDbLine
 10
176.968426751748
 20
-285.8197598835748
 30
0.0
 11
-113.4265732482519
 21
-285.8197598835748
 31
0.0
  0
SOLID
  5
436
330
43B
100
AcDbEntity
  8
0
  6
BYBLOCK
 62
     0
100
AcDbTrace
 10
196.968426751748
 20
-285.8197598835748
 30
0.0
 11
176.968426751748
 21
-282.4864265502408
 31
0.0
 12
176.968426751748
 22
-289.1530932169088
 32
0.0
 13
176.968426751748
 23
-289.1530932169088
 33
0.0
  0
LINE
  5
437
330
43B
100
AcDbEntity
  8
0
  6
BYBLOCK
 62
     0
100
AcDbLine
 10
-497.4015732482519
 20
-285.8197598835748
 30
0.0
 11
-207.0065732482519
 21
-285.8197598835748
 31
0.0
  0
SOLID
  5
438
330
43B
100
AcDbEntity
  8
0
  6
BYBLOCK
 62
     0
100
AcDbTrace
 10
-517.4015732482519
 20
-285.8197598835748
 30
0.0
 11
-497.4015732482519
 21
-282.4864265502408
 31
0.0
 12
-497.4015732482519
 22
-289.1530932169088
 32
0.0
 13
-497.4015732482519
 23
-289.1530932169088
 33
0.0
  0
MTEXT
  5
439
330
43B
100
AcDbEntity
  8
0
  6
BYBLOCK
 62
     0
100
AcDbMText
 10
-160.2165732482519
 20
-285.8197598835748
 30
0.0
 40
20.0
 41
0.0
 71
     5
 72
     1
  1
\A1;714.37
  0
ENDBLK
  5
6382
330
43B
100
AcDbEntity
  8
0
100
AcDbBlockEnd
  0
BLOCK
  5
6383
330
448
100
AcDbEntity
  8
0
100
AcDbBlockBegin
  2
*D44
 70
     1
 71
     0
 10
0.0
 20
0.0
 30
0.0
  3
*D44
  1

  0
MTEXT
  5
43E
330
448
100
AcDbEntity
  8
0
  6
BYBLOCK
 62
     0
100
AcDbMText
 10
122.1070736322641
 20
-531.4935916145369
 30
0.0
 40
20.0
 41
0.0
 71
     5
 72
     1
  1
\A1;90.00%%d
 11
0.7071067811865469
 21
-0.7071067811865481
 31
0.0
  0
SOLID
  5
443
330
448
100
AcDbEntity
  8
0
  6
BYBLOCK
 62
     0
100
AcDbTrace
 10
91.0984858725725
 20
-456.632238495053
 30
0.0
 11
96.30602648949714
 21
-476.2279684338482
 31
0.0
 12
89.6691659354582
 22
-476.8576718804834
 32
0.0
 13
89.6691659354582
 23
-476.8576718804834
 33
0.0
  0
SOLID
  5
444
330
448
100
AcDbEntity
  8
0
  6
BYBLOCK
 62
     0
100
AcDbTrace
 10
196.968426751748
 20
-562.5021793742285
 30
0.0
 11
176.7429933663176
 21
-563.9314993113428
 31
0.0
 12
177.3726968129528
 22
-557.2946387573038
 32
0.0
 13
177.3726968129528
 23
-557.2946387573038
 33
0.0
  0
ARC
  5
445
330
448
100
AcDbEntity
  8
0
  6
BYBLOCK
 62
     0
100
AcDbCircle
 10
196.968426751748
 20
-456.632238495053
 30
0.0
 40
105.8699408791755
100
AcDbArc
 50
190.8399646317131
 51
201.8686408323976
  0
ARC
  5
446
330
448
100
AcDbEntity
  8
0
  6
BYBLOCK
 62
     0
100
AcDbCircle
 10
196.968426751748
 20
-456.632238495053
 30
0.0
 40
105.8699408791755
100
AcDbArc
 50
248.1313591676023
 51
259.1600353682869
  0
ENDBLK
  5
6384
330
448
100
AcDbEntity
  8
0
100
AcDbBlockEnd
  0
BLOCK
  5
6385
330
455
100
AcDbEntity
  8
0
100
AcDbBlockBegin
  2
*D45
 70
     1
 71
     0
 10
0.0
 20
0.0
 30
0.0
  3
*D45
  1

  0
MTEXT
  5
44B
330
455
100
AcDbEntity
  8
0
  6
BYBLOCK
 62
     0
100
AcDbMText
 10
26.66966690857023
 20
-523.6884835744569
 30
0.0
 40
20.0
 41
0.0
 71
     5
 72
     1
  1
\A1;150.00%%d
 11
0.9659258262890683
 21
0.2588190451025205
 31
0.0
  0
SOLID
  5
450
330
455
100
AcDbEntity
  8
0
  6
BYBLOCK
 62
     0
100
AcDbTrace
 10
-51.41898440180267
 20
-491.3431051342768
 30
0.0
 11
-36.41174055456661
 21
-504.9773907122126
 31
0.0
 12
-41.64487338239756
 22
-509.1076165233204
 32
0.0
 13
-41.64487338239756
 23
-509.1076165233204
 33
0.0
  0
SOLID
  5
451
330
455
100
AcDbEntity
  8
0
  6
BYBLOCK
 62
     0
100
AcDbTrace
 10
78.12373347052818
 20
-456.632238495053
 30
0.0
 11
78.54136072283572
 21
-476.9038121534853
 31
0.0
 12
71.94422184700197
 22
-475.9434980916153
 32
0.0
 13
71.94422184700197
 23
-475.9434980916153
 33
0.0
  0
ARC
  5
452
330
455
100
AcDbEntity
  8
0
  6
BYBLOCK
 62
     0
100
AcDbCircle
 10
8.702000192080561
 20
-456.632238495053
 30
0.0
 40
69.42173327844762
100
AcDbArc
 50
226.5642065966047
 51
253.7218034101525
  0
ARC
  5
453
330
455
100
AcDbEntity
  8
0
  6
BYBLOCK
 62
     0
100
AcDbCircle
 10
8.702000192080561
 20
-456.632238495053
 30
0.0
 40
69.42173327844762
100
AcDbArc
 50
316.2781965898474
 51
343.4357934033952
  0
ENDBLK
  5
6386
330
455
100
AcDbEntity
  8
0
100
AcDbBlockEnd
  0
BLOCK
  5
6387
330
462
100
AcDbEntity
  8
0
100
AcDbBlockBegin
  2
*D46
 70
     1
 71
     0
 10
0.0
 20
0.0
 30
0.0
  3
*D46
  1

  0
MTEXT
  5
458
330
462
100
AcDbEntity
  8
0
  6
BYBLOCK
 62
     0
100
AcDbMText
 10
-401.0800386473641
 20
-791.5465395011097
 30
0.0
 40
20.0
 41
0.0
 71
     5
 72
     1
  1
\A1;90.00%%d
 11
0.2588190451025214
 21
0.9659258262890681
 31
0.0
  0
SOLID
  5
45D
330
462
100
AcDbEntity
  8
0
  6
BYBLOCK
 62
     0
100
AcDbTrace
 10
-413.1105384401482
 20
-700.1658212219296
 30
0.0
 11
-401.5681783670156
 21
-716.8357052963096
 31
0.0
 12
-407.5985386113094
 22
-719.6780986133055
 32
0.0
 13
-407.5985386113094
 23
-719.6780986133055
 33
0.0
  0
SOLID
  5
45E
330
462
100
AcDbEntity
  8
0
  6
BYBLOCK
 62
     0
100
AcDbTrace
 10
-457.1891162277287
 20
-864.6693130505564
 30
0.0
 11
-442.6594456546109
 21
-850.5271850583557
 31
0.0
 12
-438.8581971475786
 22
-856.0039500005681
 32
0.0
 13
-438.8581971475786
 23
-856.0039500005681
 33
0.0
  0
ARC
  5
45F
330
462
100
AcDbEntity
  8
0
  6
BYBLOCK
 62
     0
100
AcDbCircle
 10
-517.4015732482519
 20
-760.3782782424528
 30
0.0
 40
120.4249140410465
100
AcDbArc
 50
309.5265722288851
 51
324.7962007478917
  0
ARC
  5
460
330
462
100
AcDbEntity
  8
0
  6
BYBLOCK
 62
     0
100
AcDbCircle
 10
-517.4015732482519
 20
-760.3782782424528
 30
0.0
 40
120.4249140410465
100
AcDbArc
 50
5.20379925210817
 51
20.47342777111489
  0
ENDBLK
  5
6388
330
462
100
AcDbEntity
  8
0
100
AcDbBlockEnd
  0
BLOCK
  5
6389
330
46F
100
AcDbEntity
  8
0
100
AcDbBlockBegin
  2
*D47
 70
     1
 71
     0
 10
0.0
 20
0.0
 30
0.0
  3
*D47
  1

  0
MTEXT
  5
465
330
46F
100
AcDbEntity
  8
0
  6
BYBLOCK
 62
     0
100
AcDbMText
 10
-252.317967738422
 20
-1059.427925751083
 30
0.0
 40
20.0
 41
0.0
 71
     5
 72
     1
  1
\A1;120.00%%d
 11
0.8660254037844389
 21
-0.4999999999999994
 31
0.0
  0
SOLID
  5
46A
330
46F
100
AcDbEntity
  8
0
  6
BYBLOCK
 62
     0
100
AcDbTrace
 10
-206.104362228592
 20
-1139.472238495053
 30
0.0
 11
-211.5819934251165
 21
-1119.95028501734
 31
0.0
 12
-204.95446088118
 22
-1119.228996709155
 32
0.0
 13
-204.95446088118
 23
-1119.228996709155
 33
0.0
  0
SOLID
  5
46B
330
46F
100
AcDbEntity
  8
0
  6
BYBLOCK
 62
     0
100
AcDbTrace
 10
-344.7451787580819
 20
-1059.427925751083
 30
0.0
 11
-327.7889677902493
 21
-1048.310461079429
 31
0.0
 12
-325.0998555166225
 22
-1054.410716780979
 32
0.0
 13
-325.0998555166225
 23
-1054.410716780979
 33
0.0
  0
ARC
  5
46C
330
46F
100
AcDbEntity
  8
0
  6
BYBLOCK
 62
     0
100
AcDbCircle
 10
-298.531573248252
 20
-1139.472238495053
 30
0.0
 40
92.42721101965991
100
AcDbArc
 50
12.42234917381157
 51
32.97811045774544
  0
ARC
  5
46D
330
46F
100
AcDbEntity
  8
0
  6
BYBLOCK
 62
     0
100
AcDbCircle
 10
-298.531573248252
 20
-1139.472238495053
 30
0.0
 40
92.42721101965991
100
AcDbArc
 50
87.0218895422546
 51
107.5776508261885
  0
ENDBLK
  5
638A
330
46F
100
AcDbEntity
  8
0
100
AcDbBlockEnd
  0
BLOCK
  5
638B
330
47C
100
AcDbEntity
  8
0
100
AcDbBlockBegin
  2
*D48
 70
     1
 71
     0
 10
0.0
 20
0.0
 30
0.0
  3
*D48
  1

  0
MTEXT
  5
472
330
47C
100
AcDbEntity
  8
0
  6
BYBLOCK
 62
     0
100
AcDbMText
 10
118.4274186621456
 20
-1060.931230405451
 30
0.0
 40
20.0
 41
0.0
 71
     5
 72
     1
  1
\A1;90.00%%d
 11
0.7071067811865472
 21
0.7071067811865478
 31
0.0
  0
SOLID
  5
477
330
47C
100
AcDbEntity
  8
0
  6
BYBLOCK
 62
     0
100
AcDbTrace
 10
196.968426751748
 20
-1028.398479652282
 30
0.0
 11
177.3497470386493
 21
-1033.518881728874
 31
0.0
 12
176.749545268571
 22
-1026.87928819616
 32
0.0
 13
176.749545268571
 23
-1026.87928819616
 33
0.0
  0
SOLID
  5
478
330
47C
100
AcDbEntity
  8
0
  6
BYBLOCK
 62
     0
100
AcDbTrace
 10
85.89466790897723
 20
-1139.472238495053
 30
0.0
 11
84.37547645285476
 21
-1119.253357011876
 31
0.0
 12
91.01506998556872
 22
-1119.853558781954
 32
0.0
 13
91.01506998556872
 23
-1119.853558781954
 33
0.0
  0
ARC
  5
479
330
47C
100
AcDbEntity
  8
0
  6
BYBLOCK
 62
     0
100
AcDbCircle
 10
196.968426751748
 20
-1139.472238495053
 30
0.0
 40
111.0737588427708
100
AcDbArc
 50
100.3306964906555
 51
113.010549281171
  0
ARC
  5
47A
330
47C
100
AcDbEntity
  8
0
  6
BYBLOCK
 62
     0
100
AcDbCircle
 10
196.968426751748
 20
-1139.472238495053
 30
0.0
 40
111.0737588427708
100
AcDbArc
 50
156.9894507188291
 51
169.6693035093446
  0
ENDBLK
  5
638C
330
47C
100
AcDbEntity
  8
0
100
AcDbBlockEnd
  0
BLOCK
  5
638D
330
48B
100
AcDbEntity
  8
0
100
AcDbBlockBegin
  2
*D49
 70
     1
 71
     0
 10
0.0
 20
0.0
 30
0.0
  3
*D49
  1

  0
LINE
  5
483
330
48B
100
AcDbEntity
  8
0
  6
BYBLOCK
 62
     0
100
AcDbLine
 10
1121.685
 20
372.4975
 30
0.0
 11
1121.685
 21
825.2286437126249
 31
0.0
  0
LINE
  5
484
330
48B
100
AcDbEntity
  8
0
  6
BYBLOCK
 62
     0
100
AcDbLine
 10
0.0
 20
682.9025
 30
0.0
 11
0.0
 21
825.2286437126249
 31
0.0
  0
LINE
  5
485
330
48B
100
AcDbEntity
  8
0
  6
BYBLOCK
 62
     0
100
AcDbLine
 10
1101.685
 20
825.0486437126249
 30
0.0
 11
624.3841247588655
 21
825.0486437126249
 31
0.0
  0
SOLID
  5
486
330
48B
100
AcDbEntity
  8
0
  6
BYBLOCK
 62
     0
100
AcDbTrace
 10
1121.685
 20
825.0486437126249
 30
0.0
 11
1101.685
 21
828.3819770459588
 31
0.0
 12
1101.685
 22
821.7153103792909
 32
0.0
 13
1101.685
 23
821.7153103792909
 33
0.0
  0
LINE
  5
487
330
48B
100
AcDbEntity
  8
0
  6
BYBLOCK
 62
     0
100
AcDbLine
 10
20.0
 20
825.0486437126249
 30
0.0
 11
524.0041247588654
 21
825.0486437126249
 31
0.0
  0
SOLID
  5
488
330
48B
100
AcDbEntity
  8
0
  6
BYBLOCK
 62
     0
100
AcDbTrace
 10
0.0
 20
825.0486437126249
 30
0.0
 11
20.0
 21
828.3819770459588
 31
0.0
 12
20.0
 22
821.7153103792909
 32
0.0
 13
20.0
 23
821.7153103792909
 33
0.0
  0
MTEXT
  5
489
330
48B
100
AcDbEntity
  8
0
  6
BYBLOCK
 62
     0
100
AcDbMText
 10
574.1941247588654
 20
825.0486437126249
 30
0.0
 40
20.0
 41
0.0
 71
     5
 72
     1
  1
\A1;1121.68
  0
ENDBLK
  5
638E
330
48B
100
AcDbEntity
  8
0
100
AcDbBlockEnd
  0
BLOCK
  5
638F
330
497
100
AcDbEntity
  8
0
100
AcDbBlockBegin
  2
*D50
 70
     1
 71
     0
 10
0.0
 20
0.0
 30
0.0
  3
*D50
  1

  0
LINE
  5
48F
330
497
100
AcDbEntity
  8
0
  6
BYBLOCK
 62
     0
100
AcDbLine
 10
196.968426751748
 20
-1139.534738495053
 30
0.0
 11
196.968426751748
 21
-1204.263620946556
 31
0.0
  0
LINE
  5
490
330
497
100
AcDbEntity
  8
0
  6
BYBLOCK
 62
     0
100
AcDbLine
 10
-298.531573248252
 20
-1139.534738495053
 30
0.0
 11
-298.531573248252
 21
-1204.263620946556
 31
0.0
  0
LINE
  5
491
330
497
100
AcDbEntity
  8
0
  6
BYBLOCK
 62
     0
100
AcDbLine
 10
176.968426751748
 20
-1204.083620946556
 30
0.0
 11
37.32490507305676
 21
-1204.083620946556
 31
0.0
  0
SOLID
  5
492
330
497
100
AcDbEntity
  8
0
  6
BYBLOCK
 62
     0
100
AcDbTrace
 10
196.968426751748
 20
-1204.083620946556
 30
0.0
 11
176.968426751748
 21
-1200.750287613222
 31
0.0
 12
176.968426751748
 22
-1207.41695427989
 32
0.0
 13
176.968426751748
 23
-1207.41695427989
 33
0.0
  0
LINE
  5
493
330
497
100
AcDbEntity
  8
0
  6
BYBLOCK
 62
     0
100
AcDbLine
 10
-278.531573248252
 20
-1204.083620946556
 30
0.0
 11
-59.45509492694328
 21
-1204.083620946556
 31
0.0
  0
SOLID
  5
494
330
497
100
AcDbEntity
  8
0
  6
BYBLOCK
 62
     0
100
AcDbTrace
 10
-298.531573248252
 20
-1204.083620946556
 30
0.0
 11
-278.531573248252
 21
-1200.750287613222
 31
0.0
 12
-278.531573248252
 22
-1207.41695427989
 32
0.0
 13
-278.531573248252
 23
-1207.41695427989
 33
0.0
  0
MTEXT
  5
495
330
497
100
AcDbEntity
  8
0
  6
BYBLOCK
 62
     0
100
AcDbMText
 10
-11.06509492694326
 20
-1204.083620946556
 30
0.0
 40
20.0
 41
0.0
 71
     5
 72
     1
  1
\A1;495.50
  0
ENDBLK
  5
6390
330
497
100
AcDbEntity
  8
0
100
AcDbBlockEnd
  0
BLOCK
  5
6391
330
4A3
100
AcDbEntity
  8
0
100
AcDbBlockBegin
  2
*D51
 70
     1
 71
     0
 10
0.0
 20
0.0
 30
0.0
  3
*D51
  1

  0
LINE
  5
49B
330
4A3
100
AcDbEntity
  8
0
  6
BYBLOCK
 62
     0
100
AcDbLine
 10
-298.5856998359885
 20
-1139.503488495053
 30
0.0
 11
-360.1901105355369
 21
-1175.070811595705
 31
0.0
  0
LINE
  5
49C
330
4A3
100
AcDbEntity
  8
0
  6
BYBLOCK
 62
     0
100
AcDbLine
 10
-517.4556998359884
 20
-760.4095282424528
 30
0.0
 11
-579.0601105355368
 21
-795.9768513431053
 31
0.0
  0
LINE
  5
49D
330
4A3
100
AcDbEntity
  8
0
  6
BYBLOCK
 62
     0
100
AcDbLine
 10
-370.0342259628557
 20
-1157.660303520017
 30
0.0
 11
-441.6111042632015
 21
-1033.685513656644
 31
0.0
  0
SOLID
  5
49E
330
4A3
100
AcDbEntity
  8
0
  6
BYBLOCK
 62
     0
100
AcDbTrace
 10
-360.0342259628557
 20
-1174.980811595706
 30
0.0
 11
-367.147474616907
 21
-1155.99363685335
 31
0.0
 12
-372.9209773088044
 22
-1159.326970186684
 32
0.0
 13
-372.9209773088044
 23
-1159.326970186684
 33
0.0
  0
LINE
  5
49F
330
4A3
100
AcDbEntity
  8
0
  6
BYBLOCK
 62
     0
100
AcDbLine
 10
-568.9042259628556
 20
-813.2073594187941
 30
0.0
 11
-491.7011042632014
 21
-946.9270887055184
 31
0.0
  0
SOLID
  5
4A0
330
4A3
100
AcDbEntity
  8
0
  6
BYBLOCK
 62
     0
100
AcDbTrace
 10
-578.9042259628556
 20
-795.8868513431054
 30
0.0
 11
-566.0174746169068
 21
-811.5406927521271
 31
0.0
 12
-571.7909773088043
 22
-814.8740260854611
 32
0.0
 13
-571.7909773088043
 23
-814.8740260854611
 33
0.0
  0
MTEXT
  5
4A1
330
4A3
100
AcDbEntity
  8
0
  6
BYBLOCK
 62
     0
100
AcDbMText
 10
-466.6561042632014
 20
-990.3063011810809
 30
0.0
 40
20.0
 41
0.0
 71
     5
 72
     1
  1
\A1;437.74
 11
0.4999999999999999
 21
-0.8660254037844387
 31
0.0
  0
ENDBLK
  5
6392
330
4A3
100
AcDbEntity
  8
0
100
AcDbBlockEnd
  0
BLOCK
  5
6393
330
4AF
100
AcDbEntity
  8
0
100
AcDbBlockBegin
  2
*D52
 70
     1
 71
     0
 10
0.0
 20
0.0
 30
0.0
  3
*D52
  1

  0
LINE
  5
4A7
330
4AF
100
AcDbEntity
  8
0
  6
BYBLOCK
 62
     0
100
AcDbLine
 10
197.030926751748
 20
-1139.472238495053
 30
0.0
 11
279.9922418031293
 21
-1139.472238495053
 31
0.0
  0
LINE
  5
4A8
330
4AF
100
AcDbEntity
  8
0
  6
BYBLOCK
 62
     0
100
AcDbLine
 10
197.030926751748
 20
-456.632238495053
 30
0.0
 11
279.9922418031293
 21
-456.632238495053
 31
0.0
  0
LINE
  5
4A9
330
4AF
100
AcDbEntity
  8
0
  6
BYBLOCK
 62
     0
100
AcDbLine
 10
279.8122418031293
 20
-1119.472238495053
 30
0.0
 11
279.8122418031293
 21
-826.618981415606
 31
0.0
  0
SOLID
  5
4AA
330
4AF
100
AcDbEntity
  8
0
  6
BYBLOCK
 62
     0
100
AcDbTrace
 10
279.8122418031293
 20
-1139.472238495053
 30
0.0
 11
283.1455751364633
 21
-1119.472238495053
 31
0.0
 12
276.4789084697953
 22
-1119.472238495053
 32
0.0
 13
276.4789084697953
 23
-1119.472238495053
 33
0.0
  0
LINE
  5
4AB
330
4AF
100
AcDbEntity
  8
0
  6
BYBLOCK
 62
     0
100
AcDbLine
 10
279.8122418031293
 20
-476.632238495053
 30
0.0
 11
279.8122418031293
 21
-726.4389814156059
 31
0.0
  0
SOLID
  5
4AC
330
4AF
100
AcDbEntity
  8
0
  6
BYBLOCK
 62
     0
100
AcDbTrace
 10
279.8122418031293
 20
-456.632238495053
 30
0.0
 11
283.1455751364633
 21
-476.632238495053
 31
0.0
 12
276.4789084697953
 22
-476.632238495053
 32
0.0
 13
276.4789084697953
 23
-476.632238495053
 33
0.0
  0
MTEXT
  5
4AD
330
4AF
100
AcDbEntity
  8
0
  6
BYBLOCK
 62
     0
100
AcDbMText
 10
279.8122418031293
 20
-776.5289814156059
 30
0.0
 40
20.0
 41
0.0
 71
     5
 72
     1
  1
\A1;682.84
 11
6.123031769111886E-17
 21
1.0
 31
0.0
  0
ENDBLK
  5
6394
330
4AF
100
AcDbEntity
  8
0
100
AcDbBlockEnd
  0
BLOCK
  5
6395
330
535
100
AcDbEntity
  8
0
100
AcDbBlockBegin
  2
*D53
 70
     1
 71
     0
 10
0.0
 20
0.0
 30
0.0
  3
*D53
  1

  0
POINT
  5
52B
330
535
100
AcDbEntity
  8
0
  6
BYBLOCK
 62
     0
100
AcDbPoint
 10
1132.09
 20
-749.25
 30
0.0
  0
POINT
  5
52C
330
535
100
AcDbEntity
  8
0
  6
BYBLOCK
 62
     0
100
AcDbPoint
 10
-299.9999999999998
 20
-1370.06
 30
0.0
  0
LINE
  5
52D
330
535
100
AcDbEntity
  8
0
  6
BYBLOCK
 62
     0
100
AcDbLine
 10
1132.09
 20
-749.1875
 30
0.0
 11
1132.09
 21
-561.5842021840017
 31
0.0
  0
LINE
  5
52E
330
535
100
AcDbEntity
  8
0
  6
BYBLOCK
 62
     0
100
AcDbLine
 10
-299.9999999999998
 20
-1369.9975
 30
0.0
 11
-299.9999999999998
 21
-561.5842021840017
 31
0.0
  0
LINE
  5
52F
330
535
100
AcDbEntity
  8
0
  6
BYBLOCK
 62
     0
100
AcDbLine
 10
1112.09
 20
-561.7642021840018
 30
0.0
 11
471.1350000000002
 21
-561.7642021840018
 31
0.0
  0
SOLID
  5
530
330
535
100
AcDbEntity
  8
0
  6
BYBLOCK
 62
     0
100
AcDbTrace
 10
1132.09
 20
-561.7642021840018
 30
0.0
 11
1112.09
 21
-558.4308688506678
 31
0.0
 12
1112.09
 22
-565.0975355173357
 32
0.0
 13
1112.09
 23
-565.0975355173357
 33
0.0
  0
LINE
  5
531
330
535
100
AcDbEntity
  8
0
  6
BYBLOCK
 62
     0
100
AcDbLine
 10
-279.9999999999998
 20
-561.7642021840018
 30
0.0
 11
360.9550000000002
 21
-561.7642021840018
 31
0.0
  0
SOLID
  5
532
330
535
100
AcDbEntity
  8
0
  6
BYBLOCK
 62
     0
100
AcDbTrace
 10
-299.9999999999998
 20
-561.7642021840018
 30
0.0
 11
-279.9999999999998
 21
-558.4308688506678
 31
0.0
 12
-279.9999999999998
 22
-565.0975355173357
 32
0.0
 13
-279.9999999999998
 23
-565.0975355173357
 33
0.0
  0
MTEXT
  5
533
330
535
100
AcDbEntity
  8
0
  6
BYBLOCK
 62
     0
100
AcDbMText
 10
416.0450000000002
 20
-561.7642021840018
 30
0.0
 40
20.0
 41
0.0
 71
     5
 72
     1
  1
\A1;1432.09
  0
ENDBLK
  5
6396
330
535
100
AcDbEntity
  8
0
100
AcDbBlockEnd
  0
BLOCK
  5
6397
330
542
100
AcDbEntity
  8
0
100
AcDbBlockBegin
  2
*D54
 70
     1
 71
     0
 10
0.0
 20
0.0
 30
0.0
  3
*D54
  1

  0
POINT
  5
538
330
542
100
AcDbEntity
  8
0
  6
BYBLOCK
 62
     0
100
AcDbPoint
 10
1132.09
 20
-1149.25
 30
0.0
  0
POINT
  5
539
330
542
100
AcDbEntity
  8
0
  6
BYBLOCK
 62
     0
100
AcDbPoint
 10
1132.09
 20
-749.25
 30
0.0
  0
LINE
  5
53A
330
542
100
AcDbEntity
  8
0
  6
BYBLOCK
 62
     0
100
AcDbLine
 10
1132.1525
 20
-1149.25
 30
0.0
 11
1262.091738992366
 21
-1149.25
 31
0.0
  0
LINE
  5
53B
330
542
100
AcDbEntity
  8
0
  6
BYBLOCK
 62
     0
100
AcDbLine
 10
1132.1525
 20
-749.25
 30
0.0
 11
1262.091738992366
 21
-749.25
 31
0.0
  0
LINE
  5
53C
330
542
100
AcDbEntity
  8
0
  6
BYBLOCK
 62
     0
100
AcDbLine
 10
1261.911738992366
 20
-1129.25
 30
0.0
 11
1261.911738992366
 21
-992.5400000000002
 31
0.0
  0
SOLID
  5
53D
330
542
100
AcDbEntity
  8
0
  6
BYBLOCK
 62
     0
100
AcDbTrace
 10
1261.911738992366
 20
-1149.25
 30
0.0
 11
1265.2450723257
 21
-1129.25
 31
0.0
 12
1258.578405659032
 22
-1129.25
 32
0.0
 13
1258.578405659032
 23
-1129.25
 33
0.0
  0
LINE
  5
53E
330
542
100
AcDbEntity
  8
0
  6
BYBLOCK
 62
     0
100
AcDbLine
 10
1261.911738992366
 20
-769.25
 30
0.0
 11
1261.911738992366
 21
-905.96
 31
0.0
  0
SOLID
  5
53F
330
542
100
AcDbEntity
  8
0
  6
BYBLOCK
 62
     0
100
AcDbTrace
 10
1261.911738992366
 20
-749.25
 30
0.0
 11
1265.2450723257
 21
-769.25
 31
0.0
 12
1258.578405659032
 22
-769.25
 32
0.0
 13
1258.578405659032
 23
-769.25
 33
0.0
  0
MTEXT
  5
540
330
542
100
AcDbEntity
  8
0
  6
BYBLOCK
 62
     0
100
AcDbMText
 10
1261.911738992366
 20
-949.2500000000001
 30
0.0
 40
20.0
 41
0.0
 71
     5
 72
     1
  1
\A1;400.00
 11
6.123233995736766E-17
 21
1.0
 31
0.0
  0
ENDBLK
  5
6398
330
542
100
AcDbEntity
  8
0
100
AcDbBlockEnd
  0
BLOCK
  5
6399
330
54F
100
AcDbEntity
  8
0
100
AcDbBlockBegin
  2
*D55
 70
     1
 71
     0
 10
0.0
 20
0.0
 30
0.0
  3
*D55
  1

  0
POINT
  5
545
330
54F
100
AcDbEntity
  8
0
  6
BYBLOCK
 62
     0
100
AcDbPoint
 10
849.2472875253811
 20
-1432.092712474619
 30
0.0
  0
POINT
  5
546
330
54F
100
AcDbEntity
  8
0
  6
BYBLOCK
 62
     0
100
AcDbPoint
 10
1132.09
 20
-1149.25
 30
0.0
  0
LINE
  5
547
330
54F
100
AcDbEntity
  8
0
  6
BYBLOCK
 62
     0
100
AcDbLine
 10
849.2914816992053
 20
-1432.136906648443
 30
0.0
 11
928.7342412602006
 21
-1511.579666209439
 31
0.0
  0
LINE
  5
548
330
54F
100
AcDbEntity
  8
0
  6
BYBLOCK
 62
     0
100
AcDbLine
 10
1132.134194173824
 20
-1149.294194173825
 30
0.0
 11
1211.57695373482
 21
-1228.73695373482
 31
0.0
  0
LINE
  5
549
330
54F
100
AcDbEntity
  8
0
  6
BYBLOCK
 62
     0
100
AcDbLine
 10
942.749097663318
 20
-1497.310251365094
 30
0.0
 11
1039.417665719331
 21
-1400.641683309081
 31
0.0
  0
SOLID
  5
54A
330
54F
100
AcDbEntity
  8
0
  6
BYBLOCK
 62
     0
100
AcDbTrace
 10
928.6069620395871
 20
-1511.452386988825
 30
0.0
 11
945.1061202672736
 21
-1499.66727396905
 31
0.0
 12
940.3920750593624
 22
-1494.953228761139
 32
0.0
 13
940.3920750593624
 23
-1494.953228761139
 33
0.0
  0
LINE
  5
54B
330
54F
100
AcDbEntity
  8
0
  6
BYBLOCK
 62
     0
100
AcDbLine
 10
1197.307538890475
 20
-1242.751810137937
 30
0.0
 11
1100.638970834462
 21
-1339.42037819395
 31
0.0
  0
SOLID
  5
54C
330
54F
100
AcDbEntity
  8
0
  6
BYBLOCK
 62
     0
100
AcDbTrace
 10
1211.449674514206
 20
-1228.609674514206
 30
0.0
 11
1199.664561494431
 21
-1245.108832741893
 31
0.0
 12
1194.95051628652
 22
-1240.394787533982
 32
0.0
 13
1194.95051628652
 23
-1240.394787533982
 33
0.0
  0
MTEXT
  5
54D
330
54F
100
AcDbEntity
  8
0
  6
BYBLOCK
 62
     0
100
AcDbMText
 10
1070.028318276897
 20
-1370.031030751516
 30
0.0
 40
20.0
 41
0.0
 71
     5
 72
     1
  1
\A1;400.00
 11
0.7071067811865476
 21
0.7071067811865475
 31
0.0
  0
ENDBLK
  5
639A
330
54F
100
AcDbEntity
  8
0
100
AcDbBlockEnd
  0
BLOCK
  5
639B
330
55C
100
AcDbEntity
  8
0
100
AcDbBlockBegin
  2
*D56
 70
     1
 71
     0
 10
0.0
 20
0.0
 30
0.0
  3
*D56
  1

  0
POINT
  5
552
330
55C
100
AcDbEntity
  8
0
  6
BYBLOCK
 62
     0
100
AcDbPoint
 10
382.8400000000002
 20
-1806.715
 30
0.0
  0
POINT
  5
553
330
55C
100
AcDbEntity
  8
0
  6
BYBLOCK
 62
     0
100
AcDbPoint
 10
-299.9999999999999
 20
-1806.715
 30
0.0
  0
LINE
  5
554
330
55C
100
AcDbEntity
  8
0
  6
BYBLOCK
 62
     0
100
AcDbLine
 10
382.8400000000002
 20
-1806.7775
 30
0.0
 11
382.8400000000002
 21
-1808.656151568359
 31
0.0
  0
LINE
  5
555
330
55C
100
AcDbEntity
  8
0
  6
BYBLOCK
 62
     0
100
AcDbLine
 10
-299.9999999999999
 20
-1806.7775
 30
0.0
 11
-299.9999999999999
 21
-1808.656151568359
 31
0.0
  0
LINE
  5
556
330
55C
100
AcDbEntity
  8
0
  6
BYBLOCK
 62
     0
100
AcDbLine
 10
362.8400000000002
 20
-1808.476151568359
 30
0.0
 11
91.51000000000011
 21
-1808.476151568359
 31
0.0
  0
SOLID
  5
557
330
55C
100
AcDbEntity
  8
0
  6
BYBLOCK
 62
     0
100
AcDbTrace
 10
382.8400000000002
 20
-1808.476151568359
 30
0.0
 11
362.8400000000002
 21
-1805.142818235025
 31
0.0
 12
362.8400000000002
 22
-1811.809484901693
 32
0.0
 13
362.8400000000002
 23
-1811.809484901693
 33
0.0
  0
LINE
  5
558
330
55C
100
AcDbEntity
  8
0
  6
BYBLOCK
 62
     0
100
AcDbLine
 10
-279.9999999999999
 20
-1808.476151568359
 30
0.0
 11
-8.669999999999845
 21
-1808.476151568359
 31
0.0
  0
SOLID
  5
559
330
55C
100
AcDbEntity
  8
0
  6
BYBLOCK
 62
     0
100
AcDbTrace
 10
-299.9999999999999
 20
-1808.476151568359
 30
0.0
 11
-279.9999999999999
 21
-1805.142818235025
 31
0.0
 12
-279.9999999999999
 22
-1811.809484901693
 32
0.0
 13
-279.9999999999999
 23
-1811.809484901693
 33
0.0
  0
MTEXT
  5
55A
330
55C
100
AcDbEntity
  8
0
  6
BYBLOCK
 62
     0
100
AcDbMText
 10
41.42000000000013
 20
-1808.476151568359
 30
0.0
 40
20.0
 41
0.0
 71
     5
 72
     1
  1
\A1;682.84
  0
ENDBLK
  5
639C
330
55C
100
AcDbEntity
  8
0
100
AcDbBlockEnd
  0
BLOCK
  5
639D
330
569
100
AcDbEntity
  8
0
100
AcDbBlockBegin
  2
*D57
 70
     1
 71
     0
 10
0.0
 20
0.0
 30
0.0
  3
*D57
  1

  0
POINT
  5
55F
330
569
100
AcDbEntity
  8
0
  6
BYBLOCK
 62
     0
100
AcDbPoint
 10
616.0436437626906
 20
-1432.09135623731
 30
0.0
  0
POINT
  5
560
330
569
100
AcDbEntity
  8
0
  6
BYBLOCK
 62
     0
100
AcDbPoint
 10
616.0436437626903
 20
-749.2500000000003
 30
0.0
  0
LINE
  5
561
330
569
100
AcDbEntity
  8
0
  6
BYBLOCK
 62
     0
100
AcDbLine
 10
615.9811437626906
 20
-1432.09135623731
 30
0.0
 11
607.8994752192912
 21
-1432.09135623731
 31
0.0
  0
LINE
  5
562
330
569
100
AcDbEntity
  8
0
  6
BYBLOCK
 62
     0
100
AcDbLine
 10
615.9811437626903
 20
-749.2500000000003
 30
0.0
 11
607.8994752192912
 21
-749.2500000000003
 31
0.0
  0
LINE
  5
563
330
569
100
AcDbEntity
  8
0
  6
BYBLOCK
 62
     0
100
AcDbLine
 10
608.0794752192911
 20
-1412.09135623731
 30
0.0
 11
608.0794752192911
 21
-1140.760678118655
 31
0.0
  0
SOLID
  5
564
330
569
100
AcDbEntity
  8
0
  6
BYBLOCK
 62
     0
100
AcDbTrace
 10
608.0794752192911
 20
-1432.09135623731
 30
0.0
 11
611.4128085526252
 21
-1412.09135623731
 31
0.0
 12
604.7461418859571
 22
-1412.09135623731
 32
0.0
 13
604.7461418859571
 23
-1412.09135623731
 33
0.0
  0
LINE
  5
565
330
569
100
AcDbEntity
  8
0
  6
BYBLOCK
 62
     0
100
AcDbLine
 10
608.0794752192911
 20
-769.2500000000003
 30
0.0
 11
608.0794752192911
 21
-1040.580678118655
 31
0.0
  0
SOLID
  5
566
330
569
100
AcDbEntity
  8
0
  6
BYBLOCK
 62
     0
100
AcDbTrace
 10
608.0794752192911
 20
-749.2500000000003
 30
0.0
 11
611.4128085526252
 21
-769.2500000000003
 31
0.0
 12
604.7461418859571
 22
-769.2500000000003
 32
0.0
 13
604.7461418859571
 23
-769.2500000000003
 33
0.0
  0
MTEXT
  5
567
330
569
100
AcDbEntity
  8
0
  6
BYBLOCK
 62
     0
100
AcDbMText
 10
608.0794752192911
 20
-1090.670678118655
 30
0.0
 40
20.0
 41
0.0
 71
     5
 72
     1
  1
\A1;682.84
 11
6.123233995736766E-17
 21
1.0
 31
0.0
  0
ENDBLK
  5
639E
330
569
100
AcDbEntity
  8
0
100
AcDbBlockEnd
  0
BLOCK
  5
639F
330
576
100
AcDbEntity
  8
0
100
AcDbBlockBegin
  2
*D58
 70
     1
 71
     0
 10
0.0
 20
0.0
 30
0.0
  3
*D58
  1

  0
POINT
  5
56C
330
576
100
AcDbEntity
  8
0
  6
BYBLOCK
 62
     0
100
AcDbPoint
 10
-299.9999999999999
 20
-2181.34
 30
0.0
  0
POINT
  5
56D
330
576
100
AcDbEntity
  8
0
  6
BYBLOCK
 62
     0
100
AcDbPoint
 10
320.8100000000003
 20
-749.2500000000005
 30
0.0
  0
LINE
  5
56E
330
576
100
AcDbEntity
  8
0
  6
BYBLOCK
 62
     0
100
AcDbLine
 10
-300.0624999999999
 20
-2181.34
 30
0.0
 11
-442.0258902237243
 21
-2181.34
 31
0.0
  0
LINE
  5
56F
330
576
100
AcDbEntity
  8
0
  6
BYBLOCK
 62
     0
100
AcDbLine
 10
320.7475000000003
 20
-749.2500000000005
 30
0.0
 11
-442.0258902237243
 21
-749.2500000000005
 31
0.0
  0
LINE
  5
570
330
576
100
AcDbEntity
  8
0
  6
BYBLOCK
 62
     0
100
AcDbLine
 10
-441.8458902237243
 20
-2161.34
 30
0.0
 11
-441.8458902237243
 21
-1520.385
 31
0.0
  0
SOLID
  5
571
330
576
100
AcDbEntity
  8
0
  6
BYBLOCK
 62
     0
100
AcDbTrace
 10
-441.8458902237243
 20
-2181.34
 30
0.0
 11
-438.5125568903903
 21
-2161.34
 31
0.0
 12
-445.1792235570583
 22
-2161.34
 32
0.0
 13
-445.1792235570583
 23
-2161.34
 33
0.0
  0
LINE
  5
572
330
576
100
AcDbEntity
  8
0
  6
BYBLOCK
 62
     0
100
AcDbLine
 10
-441.8458902237243
 20
-769.2500000000005
 30
0.0
 11
-441.8458902237243
 21
-1410.205
 31
0.0
  0
SOLID
  5
573
330
576
100
AcDbEntity
  8
0
  6
BYBLOCK
 62
     0
100
AcDbTrace
 10
-441.8458902237243
 20
-749.2500000000005
 30
0.0
 11
-438.5125568903903
 21
-769.2500000000005
 31
0.0
 12
-445.1792235570583
 22
-769.2500000000005
 32
0.0
 13
-445.1792235570583
 23
-769.2500000000005
 33
0.0
  0
MTEXT
  5
574
330
576
100
AcDbEntity
  8
0
  6
BYBLOCK
 62
     0
100
AcDbMText
 10
-441.8458902237243
 20
-1465.295
 30
0.0
 40
20.0
 41
0.0
 71
     5
 72
     1
  1
\A1;1432.09
 11
6.123233995736766E-17
 21
1.0
 31
0.0
  0
ENDBLK
  5
63A0
330
576
100
AcDbEntity
  8
0
100
AcDbBlockEnd
  0
BLOCK
  5
63A1
330
583
100
AcDbEntity
  8
0
100
AcDbBlockBegin
  2
*D59
 70
     1
 71
     0
 10
0.0
 20
0.0
 30
0.0
  3
*D59
  1

  0
POINT
  5
579
330
583
100
AcDbEntity
  8
0
  6
BYBLOCK
 62
     0
100
AcDbPoint
 10
-299.9999999999999
 20
-3133.49
 30
0.0
  0
POINT
  5
57A
330
583
100
AcDbEntity
  8
0
  6
BYBLOCK
 62
     0
100
AcDbPoint
 10
-299.9999999999999
 20
-2181.34
 30
0.0
  0
LINE
  5
57B
330
583
100
AcDbEntity
  8
0
  6
BYBLOCK
 62
     0
100
AcDbLine
 10
-300.0624999999999
 20
-3133.49
 30
0.0
 11
-442.0258902237243
 21
-3133.49
 31
0.0
  0
LINE
  5
57C
330
583
100
AcDbEntity
  8
0
  6
BYBLOCK
 62
     0
100
AcDbLine
 10
-300.0624999999999
 20
-2181.34
 30
0.0
 11
-442.0258902237243
 21
-2181.34
 31
0.0
  0
LINE
  5
57D
330
583
100
AcDbEntity
  8
0
  6
BYBLOCK
 62
     0
100
AcDbLine
 10
-441.8458902237243
 20
-3113.49
 30
0.0
 11
-441.8458902237243
 21
-2704.205
 31
0.0
  0
SOLID
  5
57E
330
583
100
AcDbEntity
  8
0
  6
BYBLOCK
 62
     0
100
AcDbTrace
 10
-441.8458902237243
 20
-3133.49
 30
0.0
 11
-438.5125568903903
 21
-3113.49
 31
0.0
 12
-445.1792235570583
 22
-3113.49
 32
0.0
 13
-445.1792235570583
 23
-3113.49
 33
0.0
  0
LINE
  5
57F
330
583
100
AcDbEntity
  8
0
  6
BYBLOCK
 62
     0
100
AcDbLine
 10
-441.8458902237243
 20
-2201.34
 30
0.0
 11
-441.8458902237243
 21
-2610.625
 31
0.0
  0
SOLID
  5
580
330
583
100
AcDbEntity
  8
0
  6
BYBLOCK
 62
     0
100
AcDbTrace
 10
-441.8458902237243
 20
-2181.34
 30
0.0
 11
-438.5125568903903
 21
-2201.34
 31
0.0
 12
-445.1792235570583
 22
-2201.34
 32
0.0
 13
-445.1792235570583
 23
-2201.34
 33
0.0
  0
MTEXT
  5
581
330
583
100
AcDbEntity
  8
0
  6
BYBLOCK
 62
     0
100
AcDbMText
 10
-441.8458902237243
 20
-2657.415
 30
0.0
 40
20.0
 41
0.0
 71
     5
 72
     1
  1
\A1;952.15
 11
6.123233995736766E-17
 21
1.0
 31
0.0
  0
ENDBLK
  5
63A2
330
583
100
AcDbEntity
  8
0
100
AcDbBlockEnd
  0
BLOCK
  5
63A3
330
590
100
AcDbEntity
  8
0
100
AcDbBlockBegin
  2
*D60
 70
     1
 71
     0
 10
0.0
 20
0.0
 30
0.0
  3
*D60
  1

  0
POINT
  5
586
330
590
100
AcDbEntity
  8
0
  6
BYBLOCK
 62
     0
100
AcDbPoint
 10
-300.0
 20
-4085.64
 30
0.0
  0
POINT
  5
587
330
590
100
AcDbEntity
  8
0
  6
BYBLOCK
 62
     0
100
AcDbPoint
 10
-299.9999999999999
 20
-3133.49
 30
0.0
  0
LINE
  5
588
330
590
100
AcDbEntity
  8
0
  6
BYBLOCK
 62
     0
100
AcDbLine
 10
-300.0625
 20
-4085.64
 30
0.0
 11
-442.0258902237243
 21
-4085.64
 31
0.0
  0
LINE
  5
589
330
590
100
AcDbEntity
  8
0
  6
BYBLOCK
 62
     0
100
AcDbLine
 10
-300.0624999999999
 20
-3133.49
 30
0.0
 11
-442.0258902237243
 21
-3133.49
 31
0.0
  0
LINE
  5
58A
330
590
100
AcDbEntity
  8
0
  6
BYBLOCK
 62
     0
100
AcDbLine
 10
-441.8458902237243
 20
-4065.64
 30
0.0
 11
-441.8458902237243
 21
-3656.355000000001
 31
0.0
  0
SOLID
  5
58B
330
590
100
AcDbEntity
  8
0
  6
BYBLOCK
 62
     0
100
AcDbTrace
 10
-441.8458902237243
 20
-4085.64
 30
0.0
 11
-438.5125568903903
 21
-4065.64
 31
0.0
 12
-445.1792235570583
 22
-4065.64
 32
0.0
 13
-445.1792235570583
 23
-4065.64
 33
0.0
  0
LINE
  5
58C
330
590
100
AcDbEntity
  8
0
  6
BYBLOCK
 62
     0
100
AcDbLine
 10
-441.8458902237243
 20
-3153.49
 30
0.0
 11
-441.8458902237243
 21
-3562.775000000001
 31
0.0
  0
SOLID
  5
58D
330
590
100
AcDbEntity
  8
0
  6
BYBLOCK
 62
     0
100
AcDbTrace
 10
-441.8458902237243
 20
-3133.49
 30
0.0
 11
-438.5125568903903
 21
-3153.49
 31
0.0
 12
-445.1792235570583
 22
-3153.49
 32
0.0
 13
-445.1792235570583
 23
-3153.49
 33
0.0
  0
MTEXT
  5
58E
330
590
100
AcDbEntity
  8
0
  6
BYBLOCK
 62
     0
100
AcDbMText
 10
-441.8458902237243
 20
-3609.565000000001
 30
0.0
 40
20.0
 41
0.0
 71
     5
 72
     1
  1
\A1;952.15
 11
6.123233995736766E-17
 21
1.0
 31
0.0
  0
ENDBLK
  5
63A4
330
590
100
AcDbEntity
  8
0
100
AcDbBlockEnd
  0
BLOCK
  5
63A5
330
59D
100
AcDbEntity
  8
0
100
AcDbBlockBegin
  2
*D61
 70
     1
 71
     0
 10
0.0
 20
0.0
 30
0.0
  3
*D61
  1

  0
POINT
  5
593
330
59D
100
AcDbEntity
  8
0
  6
BYBLOCK
 62
     0
100
AcDbPoint
 10
3.746039747399713
 20
-4800.01
 30
0.0
  0
POINT
  5
594
330
59D
100
AcDbEntity
  8
0
  6
BYBLOCK
 62
     0
100
AcDbPoint
 10
-300.0625
 20
-4085.64
 30
0.0
  0
LINE
  5
595
330
59D
100
AcDbEntity
  8
0
  6
BYBLOCK
 62
     0
100
AcDbLine
 10
3.683539747399713
 20
-4800.01
 30
0.0
 11
-442.0258902237243
 21
-4800.01
 31
0.0
  0
LINE
  5
596
330
59D
100
AcDbEntity
  8
0
  6
BYBLOCK
 62
     0
100
AcDbLine
 10
-300.125
 20
-4085.64
 30
0.0
 11
-442.0258902237243
 21
-4085.64
 31
0.0
  0
LINE
  5
597
330
59D
100
AcDbEntity
  8
0
  6
BYBLOCK
 62
     0
100
AcDbLine
 10
-441.8458902237243
 20
-4780.01
 30
0.0
 11
-441.8458902237243
 21
-4489.615
 31
0.0
  0
SOLID
  5
598
330
59D
100
AcDbEntity
  8
0
  6
BYBLOCK
 62
     0
100
AcDbTrace
 10
-441.8458902237243
 20
-4800.01
 30
0.0
 11
-438.5125568903903
 21
-4780.01
 31
0.0
 12
-445.1792235570583
 22
-4780.01
 32
0.0
 13
-445.1792235570583
 23
-4780.01
 33
0.0
  0
LINE
  5
599
330
59D
100
AcDbEntity
  8
0
  6
BYBLOCK
 62
     0
100
AcDbLine
 10
-441.8458902237243
 20
-4105.64
 30
0.0
 11
-441.8458902237243
 21
-4396.035
 31
0.0
  0
SOLID
  5
59A
330
59D
100
AcDbEntity
  8
0
  6
BYBLOCK
 62
     0
100
AcDbTrace
 10
-441.8458902237243
 20
-4085.64
 30
0.0
 11
-438.5125568903903
 21
-4105.64
 31
0.0
 12
-445.1792235570583
 22
-4105.64
 32
0.0
 13
-445.1792235570583
 23
-4105.64
 33
0.0
  0
MTEXT
  5
59B
330
59D
100
AcDbEntity
  8
0
  6
BYBLOCK
 62
     0
100
AcDbMText
 10
-441.8458902237243
 20
-4442.825000000001
 30
0.0
 40
20.0
 41
0.0
 71
     5
 72
     1
  1
\A1;714.37
 11
6.123233995736766E-17
 21
1.0
 31
0.0
  0
ENDBLK
  5
63A6
330
59D
100
AcDbEntity
  8
0
100
AcDbBlockEnd
  0
BLOCK
  5
63A7
330
5AA
100
AcDbEntity
  8
0
100
AcDbBlockBegin
  2
*D62
 70
     1
 71
     0
 10
0.0
 20
0.0
 30
0.0
  3
*D62
  1

  0
POINT
  5
5A0
330
5AA
100
AcDbEntity
  8
0
  6
BYBLOCK
 62
     0
100
AcDbPoint
 10
3.746039747399713
 20
-4800.01
 30
0.0
  0
POINT
  5
5A1
330
5AA
100
AcDbEntity
  8
0
  6
BYBLOCK
 62
     0
100
AcDbPoint
 10
382.84
 20
-4581.14
 30
0.0
  0
LINE
  5
5A2
330
5AA
100
AcDbEntity
  8
0
  6
BYBLOCK
 62
     0
100
AcDbLine
 10
3.777289747399713
 20
-4800.064126587737
 30
0.0
 11
77.73890904603088
 21
-4928.169409023033
 31
0.0
  0
LINE
  5
5A3
330
5AA
100
AcDbEntity
  8
0
  6
BYBLOCK
 62
     0
100
AcDbLine
 10
382.87125
 20
-4581.194126587737
 30
0.0
 11
456.8328692986312
 21
-4709.299409023033
 31
0.0
  0
LINE
  5
5A4
330
5AA
100
AcDbEntity
  8
0
  6
BYBLOCK
 62
     0
100
AcDbLine
 10
94.96941712171966
 20
-4918.013524450352
 30
0.0
 11
223.8166766967685
 21
-4843.623524450351
 31
0.0
  0
SOLID
  5
5A5
330
5AA
100
AcDbEntity
  8
0
  6
BYBLOCK
 62
     0
100
AcDbTrace
 10
77.64890904603088
 20
-4928.013524450352
 30
0.0
 11
96.63608378838666
 21
-4920.9002757963
 31
0.0
 12
93.30275045505266
 22
-4915.126773104403
 32
0.0
 13
93.30275045505266
 23
-4915.126773104403
 33
0.0
  0
LINE
  5
5A6
330
5AA
100
AcDbEntity
  8
0
  6
BYBLOCK
 62
     0
100
AcDbLine
 10
439.4223612229424
 20
-4719.143524450352
 30
0.0
 11
310.5751016478936
 21
-4793.533524450351
 31
0.0
  0
SOLID
  5
5A7
330
5AA
100
AcDbEntity
  8
0
  6
BYBLOCK
 62
     0
100
AcDbTrace
 10
456.7428692986312
 20
-4709.143524450352
 30
0.0
 11
441.0890278896094
 21
-4722.0302757963
 31
0.0
 12
437.7556945562754
 22
-4716.256773104403
 32
0.0
 13
437.7556945562754
 23
-4716.256773104403
 33
0.0
  0
MTEXT
  5
5A8
330
5AA
100
AcDbEntity
  8
0
  6
BYBLOCK
 62
     0
100
AcDbMText
 10
267.195889172331
 20
-4818.578524450351
 30
0.0
 40
20.0
 41
0.0
 71
     5
 72
     1
  1
\A1;437.74
 11
0.8660254037844388
 21
0.4999999999999998
 31
0.0
  0
ENDBLK
  5
63A8
330
5AA
100
AcDbEntity
  8
0
100
AcDbBlockEnd
  0
BLOCK
  5
63A9
330
299C
100
AcDbEntity
  8
0
100
AcDbBlockBegin
  2
*D63
 70
     1
 71
     0
 10
0.0
 20
0.0
 30
0.0
  3
*D63
  1

  0
POINT
  5
2992
330
299C
100
AcDbEntity
  8
0
  6
BYBLOCK
 62
     0
100
AcDbPoint
 10
-55.52650899999955
 20
-1802.88804
 30
0.0
  0
POINT
  5
2993
330
299C
100
AcDbEntity
  8
0
  6
BYBLOCK
 62
     0
100
AcDbPoint
 10
-56.50204821378084
 20
-3642.830429582562
 30
0.0
  0
LINE
  5
2994
330
299C
100
AcDbEntity
  8
0
  6
BYBLOCK
 62
     0
100
AcDbLine
 10
-55.58900899121477
 20
-1802.888006862445
 30
0.0
 11
-392.3038789440417
 21
-1802.709480316526
 31
0.0
  0
LINE
  5
2995
330
299C
100
AcDbEntity
  8
0
  6
BYBLOCK
 62
     0
100
AcDbLine
 10
-56.56454820499606
 20
-3642.830396445007
 30
0.0
 11
-393.2794181578232
 21
-3642.651869899088
 31
0.0
  0
LINE
  5
2996
330
299C
100
AcDbEntity
  8
0
  6
BYBLOCK
 62
     0
100
AcDbLine
 10
-392.1344829869697
 20
-1822.709572941555
 30
0.0
 11
-392.5815384681785
 21
-2665.890778526169
 31
0.0
  0
SOLID
  5
2997
330
299C
100
AcDbEntity
  8
0
  6
BYBLOCK
 62
     0
100
AcDbTrace
 10
-392.1238789693419
 20
-1802.709575752685
 30
0.0
 11
-395.467815851782
 21
-1822.707805605284
 31
0.0
 12
-388.8011501221573
 22
-1822.711340277826
 32
0.0
 13
-388.8011501221573
 23
-1822.711340277826
 33
0.0
  0
LINE
  5
2998
330
299C
100
AcDbEntity
  8
0
  6
BYBLOCK
 62
     0
100
AcDbLine
 10
-393.0888141654956
 20
-3622.651968146377
 30
0.0
 11
-392.6417586842867
 21
-2779.470762561762
 31
0.0
  0
SOLID
  5
2999
330
299C
100
AcDbEntity
  8
0
  6
BYBLOCK
 62
     0
100
AcDbTrace
 10
-393.0994181831234
 20
-3642.651965335246
 30
0.0
 11
-396.4221470303079
 21
-3622.650200810105
 31
0.0
 12
-389.7554813006832
 22
-3622.653735482648
 32
0.0
 13
-389.7554813006832
 23
-3622.653735482648
 33
0.0
  0
MTEXT
  5
299A
330
299C
100
AcDbEntity
  8
0
  6
BYBLOCK
 62
     0
100
AcDbMText
 10
-392.6116485762327
 20
-2722.680770543966
 30
0.0
 40
20.0
 41
0.0
 71
     5
 72
     1
  1
\A1;1839.94
 11
0.0005302008813896826
 21
0.9999998594435028
 31
0.0
  0
ENDBLK
  5
63AA
330
299C
100
AcDbEntity
  8
0
100
AcDbBlockEnd
  0
BLOCK
  5
63AB
330
2BCC
100
AcDbEntity
  8
0
100
AcDbBlockBegin
  2
*D64
 70
     1
 71
     0
 10
0.0
 20
0.0
 30
0.0
  3
*D64
  1

  0
POINT
  5
2BC2
330
2BCC
100
AcDbEntity
  8
0
  6
BYBLOCK
 62
     0
100
AcDbPoint
 10
-299.9999999999999
 20
-1775.7
 30
0.0
  0
POINT
  5
2BC3
330
2BCC
100
AcDbEntity
  8
0
  6
BYBLOCK
 62
     0
100
AcDbPoint
 10
-117.6997419999996
 20
-1775.757842
 30
0.0
  0
LINE
  5
2BC4
330
2BCC
100
AcDbEntity
  8
0
  6
BYBLOCK
 62
     0
100
AcDbLine
 10
-299.9999999999999
 20
-1775.7625
 30
0.0
 11
-299.9999999999999
 21
-1938.844418319065
 31
0.0
  0
LINE
  5
2BC5
330
2BCC
100
AcDbEntity
  8
0
  6
BYBLOCK
 62
     0
100
AcDbLine
 10
-117.6997419999996
 20
-1775.820342
 30
0.0
 11
-117.6997419999996
 21
-1938.844418319065
 31
0.0
  0
LINE
  5
2BC6
330
2BCC
100
AcDbEntity
  8
0
  6
BYBLOCK
 62
     0
100
AcDbLine
 10
-279.9999999999999
 20
-1938.664418319065
 30
0.0
 11
-253.9398709999997
 21
-1938.664418319065
 31
0.0
  0
SOLID
  5
2BC7
330
2BCC
100
AcDbEntity
  8
0
  6
BYBLOCK
 62
     0
100
AcDbTrace
 10
-299.9999999999999
 20
-1938.664418319065
 30
0.0
 11
-279.9999999999999
 21
-1941.997751652399
 31
0.0
 12
-279.9999999999999
 22
-1935.331084985731
 32
0.0
 13
-279.9999999999999
 23
-1935.331084985731
 33
0.0
  0
LINE
  5
2BC8
330
2BCC
100
AcDbEntity
  8
0
  6
BYBLOCK
 62
     0
100
AcDbLine
 10
-137.6997419999996
 20
-1938.664418319065
 30
0.0
 11
-163.7598709999997
 21
-1938.664418319065
 31
0.0
  0
SOLID
  5
2BC9
330
2BCC
100
AcDbEntity
  8
0
  6
BYBLOCK
 62
     0
100
AcDbTrace
 10
-117.6997419999996
 20
-1938.664418319065
 30
0.0
 11
-137.6997419999996
 21
-1941.997751652399
 31
0.0
 12
-137.6997419999996
 22
-1935.331084985731
 32
0.0
 13
-137.6997419999996
 23
-1935.331084985731
 33
0.0
  0
MTEXT
  5
2BCA
330
2BCC
100
AcDbEntity
  8
0
  6
BYBLOCK
 62
     0
100
AcDbMText
 10
-208.8498709999997
 20
-1938.664418319065
 30
0.0
 40
20.0
 41
0.0
 71
     5
 72
     1
  1
\A1;182.30
  0
ENDBLK
  5
63AC
330
2BCC
100
AcDbEntity
  8
0
100
AcDbBlockEnd
  0
BLOCK
  5
63AD
330
2BD9
100
AcDbEntity
  8
0
100
AcDbBlockBegin
  2
*D65
 70
     1
 71
     0
 10
0.0
 20
0.0
 30
0.0
  3
*D65
  1

  0
POINT
  5
2BCF
330
2BD9
100
AcDbEntity
  8
0
  6
BYBLOCK
 62
     0
100
AcDbPoint
 10
-299.9999999999999
 20
-1775.7625
 30
0.0
  0
POINT
  5
2BD0
330
2BD9
100
AcDbEntity
  8
0
  6
BYBLOCK
 62
     0
100
AcDbPoint
 10
-92.78491099999957
 20
-1776.135088
 30
0.0
  0
LINE
  5
2BD1
330
2BD9
100
AcDbEntity
  8
0
  6
BYBLOCK
 62
     0
100
AcDbLine
 10
-299.9999999999999
 20
-1775.7
 30
0.0
 11
-299.9999999999999
 21
-1775.577842
 31
0.0
  0
LINE
  5
2BD2
330
2BD9
100
AcDbEntity
  8
0
  6
BYBLOCK
 62
     0
100
AcDbLine
 10
-92.78491099999957
 20
-1776.072588
 30
0.0
 11
-92.78491099999957
 21
-1775.577842
 31
0.0
  0
LINE
  5
2BD3
330
2BD9
100
AcDbEntity
  8
0
  6
BYBLOCK
 62
     0
100
AcDbLine
 10
-279.9999999999999
 20
-1775.757842
 30
0.0
 11
-244.7824554999997
 21
-1775.757842
 31
0.0
  0
SOLID
  5
2BD4
330
2BD9
100
AcDbEntity
  8
0
  6
BYBLOCK
 62
     0
100
AcDbTrace
 10
-299.9999999999999
 20
-1775.757842
 30
0.0
 11
-279.9999999999999
 21
-1779.091175333334
 31
0.0
 12
-279.9999999999999
 22
-1772.424508666666
 32
0.0
 13
-279.9999999999999
 23
-1772.424508666666
 33
0.0
  0
LINE
  5
2BD5
330
2BD9
100
AcDbEntity
  8
0
  6
BYBLOCK
 62
     0
100
AcDbLine
 10
-112.7849109999996
 20
-1775.757842
 30
0.0
 11
-148.0024554999997
 21
-1775.757842
 31
0.0
  0
SOLID
  5
2BD6
330
2BD9
100
AcDbEntity
  8
0
  6
BYBLOCK
 62
     0
100
AcDbTrace
 10
-92.78491099999957
 20
-1775.757842
 30
0.0
 11
-112.7849109999996
 21
-1779.091175333334
 31
0.0
 12
-112.7849109999996
 22
-1772.424508666666
 32
0.0
 13
-112.7849109999996
 23
-1772.424508666666
 33
0.0
  0
MTEXT
  5
2BD7
330
2BD9
100
AcDbEntity
  8
0
  6
BYBLOCK
 62
     0
100
AcDbMText
 10
-196.3924554999997
 20
-1775.757842
 30
0.0
 40
20.0
 41
0.0
 71
     5
 72
     1
  1
\A1;207.22
  0
ENDBLK
  5
63AE
330
2BD9
100
AcDbEntity
  8
0
100
AcDbBlockEnd
  0
BLOCK
  5
63AF
330
2BE5
100
AcDbEntity
  8
0
100
AcDbBlockBegin
  2
*D66
 70
     1
 71
     0
 10
0.0
 20
0.0
 30
0.0
  3
*D66
  1

  0
POINT
  5
2BDB
330
2BE5
100
AcDbEntity
  8
0
  6
BYBLOCK
 62
     0
100
AcDbPoint
 10
-299.9999999999999
 20
-1775.7625
 30
0.0
  0
POINT
  5
2BDC
330
2BE5
100
AcDbEntity
  8
0
  6
BYBLOCK
 62
     0
100
AcDbPoint
 10
-92.78491099999957
 20
-1776.135088
 30
0.0
  0
LINE
  5
2BDD
330
2BE5
100
AcDbEntity
  8
0
  6
BYBLOCK
 62
     0
100
AcDbLine
 10
-299.9999999999999
 20
-1775.825
 30
0.0
 11
-299.9999999999999
 21
-1821.3831479203
 31
0.0
  0
LINE
  5
2BDE
330
2BE5
100
AcDbEntity
  8
0
  6
BYBLOCK
 62
     0
100
AcDbLine
 10
-92.78491099999957
 20
-1776.197588
 30
0.0
 11
-92.78491099999957
 21
-1821.3831479203
 31
0.0
  0
LINE
  5
2BDF
330
2BE5
100
AcDbEntity
  8
0
  6
BYBLOCK
 62
     0
100
AcDbLine
 10
-279.9999999999999
 20
-1821.203147920299
 30
0.0
 11
-269.2270489649036
 21
-1821.203147920299
 31
0.0
  0
SOLID
  5
2BE0
330
2BE5
100
AcDbEntity
  8
0
  6
BYBLOCK
 62
     0
100
AcDbTrace
 10
-299.9999999999999
 20
-1821.203147920299
 30
0.0
 11
-279.9999999999999
 21
-1824.536481253633
 31
0.0
 12
-279.9999999999999
 22
-1817.869814586966
 32
0.0
 13
-279.9999999999999
 23
-1817.869814586966
 33
0.0
  0
LINE
  5
2BE1
330
2BE5
100
AcDbEntity
  8
0
  6
BYBLOCK
 62
     0
100
AcDbLine
 10
-112.7849109999996
 20
-1821.203147920299
 30
0.0
 11
-172.4470489649036
 21
-1821.203147920299
 31
0.0
  0
SOLID
  5
2BE2
330
2BE5
100
AcDbEntity
  8
0
  6
BYBLOCK
 62
     0
100
AcDbTrace
 10
-92.78491099999957
 20
-1821.203147920299
 30
0.0
 11
-112.7849109999996
 21
-1824.536481253633
 31
0.0
 12
-112.7849109999996
 22
-1817.869814586966
 32
0.0
 13
-112.7849109999996
 23
-1817.869814586966
 33
0.0
  0
MTEXT
  5
2BE3
330
2BE5
100
AcDbEntity
  8
0
  6
BYBLOCK
 62
     0
100
AcDbMText
 10
-220.8370489649036
 20
-1821.203147920299
 30
0.0
 40
20.0
 41
0.0
 71
     5
 72
     1
  1
\A1;207.22
  0
ENDBLK
  5
63B0
330
2BE5
100
AcDbEntity
  8
0
100
AcDbBlockEnd
  0
BLOCK
  5
63B1
330
2BF1
100
AcDbEntity
  8
0
100
AcDbBlockBegin
  2
*D67
 70
     1
 71
     0
 10
0.0
 20
0.0
 30
0.0
  3
*D67
  1

  0
POINT
  5
2BE7
330
2BF1
100
AcDbEntity
  8
0
  6
BYBLOCK
 62
     0
100
AcDbPoint
 10
-299.9999999999999
 20
-1775.7625
 30
0.0
  0
POINT
  5
2BE8
330
2BF1
100
AcDbEntity
  8
0
  6
BYBLOCK
 62
     0
100
AcDbPoint
 10
-92.78491099999957
 20
-1776.135088
 30
0.0
  0
LINE
  5
2BE9
330
2BF1
100
AcDbEntity
  8
0
  6
BYBLOCK
 62
     0
100
AcDbLine
 10
-299.9999999999999
 20
-1775.825
 30
0.0
 11
-299.9999999999999
 21
-1984.682962864925
 31
0.0
  0
LINE
  5
2BEA
330
2BF1
100
AcDbEntity
  8
0
  6
BYBLOCK
 62
     0
100
AcDbLine
 10
-92.78491099999957
 20
-1776.197588
 30
0.0
 11
-92.78491099999957
 21
-1984.682962864925
 31
0.0
  0
LINE
  5
2BEB
330
2BF1
100
AcDbEntity
  8
0
  6
BYBLOCK
 62
     0
100
AcDbLine
 10
-279.9999999999999
 20
-1984.502962864925
 30
0.0
 11
-263.4972308966711
 21
-1984.502962864925
 31
0.0
  0
SOLID
  5
2BEC
330
2BF1
100
AcDbEntity
  8
0
  6
BYBLOCK
 62
     0
100
AcDbTrace
 10
-299.9999999999999
 20
-1984.502962864925
 30
0.0
 11
-279.9999999999999
 21
-1987.836296198259
 31
0.0
 12
-279.9999999999999
 22
-1981.169629531591
 32
0.0
 13
-279.9999999999999
 23
-1981.169629531591
 33
0.0
  0
LINE
  5
2BED
330
2BF1
100
AcDbEntity
  8
0
  6
BYBLOCK
 62
     0
100
AcDbLine
 10
-112.7849109999996
 20
-1984.502962864925
 30
0.0
 11
-166.7172308966711
 21
-1984.502962864925
 31
0.0
  0
SOLID
  5
2BEE
330
2BF1
100
AcDbEntity
  8
0
  6
BYBLOCK
 62
     0
100
AcDbTrace
 10
-92.78491099999957
 20
-1984.502962864925
 30
0.0
 11
-112.7849109999996
 21
-1987.836296198259
 31
0.0
 12
-112.7849109999996
 22
-1981.169629531591
 32
0.0
 13
-112.7849109999996
 23
-1981.169629531591
 33
0.0
  0
MTEXT
  5
2BEF
330
2BF1
100
AcDbEntity
  8
0
  6
BYBLOCK
 62
     0
100
AcDbMText
 10
-215.1072308966711
 20
-1984.502962864925
 30
0.0
 40
20.0
 41
0.0
 71
     5
 72
     1
  1
\A1;207.22
  0
ENDBLK
  5
63B2
330
2BF1
100
AcDbEntity
  8
0
100
AcDbBlockEnd
  0
BLOCK
  5
63B3
330
2BFD
100
AcDbEntity
  8
0
100
AcDbBlockBegin
  2
*D68
 70
     1
 71
     0
 10
0.0
 20
0.0
 30
0.0
  3
*D68
  1

  0
POINT
  5
2BF3
330
2BFD
100
AcDbEntity
  8
0
  6
BYBLOCK
 62
     0
100
AcDbPoint
 10
-299.9999999999999
 20
-1775.7
 30
0.0
  0
POINT
  5
2BF4
330
2BFD
100
AcDbEntity
  8
0
  6
BYBLOCK
 62
     0
100
AcDbPoint
 10
-117.6997419999996
 20
-1775.757842
 30
0.0
  0
LINE
  5
2BF5
330
2BFD
100
AcDbEntity
  8
0
  6
BYBLOCK
 62
     0
100
AcDbLine
 10
-299.9999999999999
 20
-1775.7625
 30
0.0
 11
-299.9999999999999
 21
-1945.529206065336
 31
0.0
  0
LINE
  5
2BF6
330
2BFD
100
AcDbEntity
  8
0
  6
BYBLOCK
 62
     0
100
AcDbLine
 10
-117.6997419999996
 20
-1775.820342
 30
0.0
 11
-117.6997419999996
 21
-1945.529206065336
 31
0.0
  0
LINE
  5
2BF7
330
2BFD
100
AcDbEntity
  8
0
  6
BYBLOCK
 62
     0
100
AcDbLine
 10
-279.9999999999999
 20
-1945.349206065336
 30
0.0
 11
-264.9720792868649
 21
-1945.349206065336
 31
0.0
  0
SOLID
  5
2BF8
330
2BFD
100
AcDbEntity
  8
0
  6
BYBLOCK
 62
     0
100
AcDbTrace
 10
-299.9999999999999
 20
-1945.349206065336
 30
0.0
 11
-279.9999999999999
 21
-1948.68253939867
 31
0.0
 12
-279.9999999999999
 22
-1942.015872732002
 32
0.0
 13
-279.9999999999999
 23
-1942.015872732002
 33
0.0
  0
LINE
  5
2BF9
330
2BFD
100
AcDbEntity
  8
0
  6
BYBLOCK
 62
     0
100
AcDbLine
 10
-137.6997419999996
 20
-1945.349206065336
 30
0.0
 11
-174.7920792868648
 21
-1945.349206065336
 31
0.0
  0
SOLID
  5
2BFA
330
2BFD
100
AcDbEntity
  8
0
  6
BYBLOCK
 62
     0
100
AcDbTrace
 10
-117.6997419999996
 20
-1945.349206065336
 30
0.0
 11
-137.6997419999996
 21
-1948.68253939867
 31
0.0
 12
-137.6997419999996
 22
-1942.015872732002
 32
0.0
 13
-137.6997419999996
 23
-1942.015872732002
 33
0.0
  0
MTEXT
  5
2BFB
330
2BFD
100
AcDbEntity
  8
0
  6
BYBLOCK
 62
     0
100
AcDbMText
 10
-219.8820792868648
 20
-1945.349206065336
 30
0.0
 40
20.0
 41
0.0
 71
     5
 72
     1
  1
\A1;182.30
  0
ENDBLK
  5
63B4
330
2BFD
100
AcDbEntity
  8
0
100
AcDbBlockEnd
  0
BLOCK
  5
63B5
330
2C0A
100
AcDbEntity
  8
0
100
AcDbBlockBegin
  2
*D69
 70
     1
 71
     0
 10
0.0
 20
0.0
 30
0.0
  3
*D69
  1

  0
POINT
  5
2C00
330
2C0A
100
AcDbEntity
  8
0
  6
BYBLOCK
 62
     0
100
AcDbPoint
 10
-299.9999999999999
 20
-1775.7
 30
0.0
  0
POINT
  5
2C01
330
2C0A
100
AcDbEntity
  8
0
  6
BYBLOCK
 62
     0
100
AcDbPoint
 10
-55.52650899999955
 20
-1802.88804
 30
0.0
  0
LINE
  5
2C02
330
2C0A
100
AcDbEntity
  8
0
  6
BYBLOCK
 62
     0
100
AcDbLine
 10
-299.9999999999999
 20
-1775.7625
 30
0.0
 11
-299.9999999999999
 21
-2028.611568054707
 31
0.0
  0
LINE
  5
2C03
330
2C0A
100
AcDbEntity
  8
0
  6
BYBLOCK
 62
     0
100
AcDbLine
 10
-55.52650899999955
 20
-1802.95054
 30
0.0
 11
-55.52650899999955
 21
-2028.611568054707
 31
0.0
  0
LINE
  5
2C04
330
2C0A
100
AcDbEntity
  8
0
  6
BYBLOCK
 62
     0
100
AcDbLine
 10
-279.9999999999999
 20
-2028.431568054707
 30
0.0
 11
-227.8532544999997
 21
-2028.431568054707
 31
0.0
  0
SOLID
  5
2C05
330
2C0A
100
AcDbEntity
  8
0
  6
BYBLOCK
 62
     0
100
AcDbTrace
 10
-299.9999999999999
 20
-2028.431568054707
 30
0.0
 11
-279.9999999999999
 21
-2031.764901388041
 31
0.0
 12
-279.9999999999999
 22
-2025.098234721373
 32
0.0
 13
-279.9999999999999
 23
-2025.098234721373
 33
0.0
  0
LINE
  5
2C06
330
2C0A
100
AcDbEntity
  8
0
  6
BYBLOCK
 62
     0
100
AcDbLine
 10
-75.52650899999955
 20
-2028.431568054707
 30
0.0
 11
-127.6732544999997
 21
-2028.431568054707
 31
0.0
  0
SOLID
  5
2C07
330
2C0A
100
AcDbEntity
  8
0
  6
BYBLOCK
 62
     0
100
AcDbTrace
 10
-55.52650899999955
 20
-2028.431568054707
 30
0.0
 11
-75.52650899999955
 21
-2031.764901388041
 31
0.0
 12
-75.52650899999955
 22
-2025.098234721373
 32
0.0
 13
-75.52650899999955
 23
-2025.098234721373
 33
0.0
  0
MTEXT
  5
2C08
330
2C0A
100
AcDbEntity
  8
0
  6
BYBLOCK
 62
     0
100
AcDbMText
 10
-177.7632544999997
 20
-2028.431568054707
 30
0.0
 40
20.0
 41
0.0
 71
     5
 72
     1
  1
\A1;244.47
  0
ENDBLK
  5
63B6
330
2C0A
100
AcDbEntity
  8
0
100
AcDbBlockEnd
  0
BLOCK
  5
63B7
330
2C17
100
AcDbEntity
  8
0
100
AcDbBlockBegin
  2
*D70
 70
     1
 71
     0
 10
0.0
 20
0.0
 30
0.0
  3
*D70
  1

  0
POINT
  5
2C0D
330
2C17
100
AcDbEntity
  8
0
  6
BYBLOCK
 62
     0
100
AcDbPoint
 10
-299.9999999999999
 20
-1775.825
 30
0.0
  0
POINT
  5
2C0E
330
2C17
100
AcDbEntity
  8
0
  6
BYBLOCK
 62
     0
100
AcDbPoint
 10
-29.79012599999953
 20
-1775.923396
 30
0.0
  0
LINE
  5
2C0F
330
2C17
100
AcDbEntity
  8
0
  6
BYBLOCK
 62
     0
100
AcDbLine
 10
-299.9999999999999
 20
-1775.8875
 30
0.0
 11
-299.9999999999999
 21
-1885.06804
 31
0.0
  0
LINE
  5
2C10
330
2C17
100
AcDbEntity
  8
0
  6
BYBLOCK
 62
     0
100
AcDbLine
 10
-29.79012599999953
 20
-1775.985896
 30
0.0
 11
-29.79012599999953
 21
-1885.06804
 31
0.0
  0
LINE
  5
2C11
330
2C17
100
AcDbEntity
  8
0
  6
BYBLOCK
 62
     0
100
AcDbLine
 10
-279.9999999999999
 20
-1884.88804
 30
0.0
 11
-209.8850629999997
 21
-1884.88804
 31
0.0
  0
SOLID
  5
2C12
330
2C17
100
AcDbEntity
  8
0
  6
BYBLOCK
 62
     0
100
AcDbTrace
 10
-299.9999999999999
 20
-1884.88804
 30
0.0
 11
-279.9999999999999
 21
-1888.221373333334
 31
0.0
 12
-279.9999999999999
 22
-1881.554706666666
 32
0.0
 13
-279.9999999999999
 23
-1881.554706666666
 33
0.0
  0
LINE
  5
2C13
330
2C17
100
AcDbEntity
  8
0
  6
BYBLOCK
 62
     0
100
AcDbLine
 10
-49.79012599999953
 20
-1884.88804
 30
0.0
 11
-119.9050629999997
 21
-1884.88804
 31
0.0
  0
SOLID
  5
2C14
330
2C17
100
AcDbEntity
  8
0
  6
BYBLOCK
 62
     0
100
AcDbTrace
 10
-29.79012599999953
 20
-1884.88804
 30
0.0
 11
-49.79012599999953
 21
-1888.221373333334
 31
0.0
 12
-49.79012599999953
 22
-1881.554706666666
 32
0.0
 13
-49.79012599999953
 23
-1881.554706666666
 33
0.0
  0
MTEXT
  5
2C15
330
2C17
100
AcDbEntity
  8
0
  6
BYBLOCK
 62
     0
100
AcDbMText
 10
-164.8950629999997
 20
-1884.88804
 30
0.0
 40
20.0
 41
0.0
 71
     5
 72
     1
  1
\A1;270.21
  0
ENDBLK
  5
63B8
330
2C17
100
AcDbEntity
  8
0
100
AcDbBlockEnd
  0
BLOCK
  5
63B9
330
2C24
100
AcDbEntity
  8
0
100
AcDbBlockBegin
  2
*D71
 70
     1
 71
     0
 10
0.0
 20
0.0
 30
0.0
  3
*D71
  1

  0
POINT
  5
2C1A
330
2C24
100
AcDbEntity
  8
0
  6
BYBLOCK
 62
     0
100
AcDbPoint
 10
-299.9999999999999
 20
-1775.7
 30
0.0
  0
POINT
  5
2C1B
330
2C24
100
AcDbEntity
  8
0
  6
BYBLOCK
 62
     0
100
AcDbPoint
 10
8.628313000000446
 20
-1775.518856
 30
0.0
  0
LINE
  5
2C1C
330
2C24
100
AcDbEntity
  8
0
  6
BYBLOCK
 62
     0
100
AcDbLine
 10
-299.9999999999999
 20
-1775.7625
 30
0.0
 11
-299.9999999999999
 21
-2232.02010947696
 31
0.0
  0
LINE
  5
2C1D
330
2C24
100
AcDbEntity
  8
0
  6
BYBLOCK
 62
     0
100
AcDbLine
 10
8.628313000000446
 20
-1775.581356
 30
0.0
 11
8.628313000000446
 21
-2232.02010947696
 31
0.0
  0
LINE
  5
2C1E
330
2C24
100
AcDbEntity
  8
0
  6
BYBLOCK
 62
     0
100
AcDbLine
 10
-279.9999999999999
 20
-2231.84010947696
 30
0.0
 11
-194.0758434999997
 21
-2231.84010947696
 31
0.0
  0
SOLID
  5
2C1F
330
2C24
100
AcDbEntity
  8
0
  6
BYBLOCK
 62
     0
100
AcDbTrace
 10
-299.9999999999999
 20
-2231.84010947696
 30
0.0
 11
-279.9999999999999
 21
-2235.173442810294
 31
0.0
 12
-279.9999999999999
 22
-2228.506776143626
 32
0.0
 13
-279.9999999999999
 23
-2228.506776143626
 33
0.0
  0
LINE
  5
2C20
330
2C24
100
AcDbEntity
  8
0
  6
BYBLOCK
 62
     0
100
AcDbLine
 10
-11.37168699999955
 20
-2231.84010947696
 30
0.0
 11
-97.29584349999971
 21
-2231.84010947696
 31
0.0
  0
SOLID
  5
2C21
330
2C24
100
AcDbEntity
  8
0
  6
BYBLOCK
 62
     0
100
AcDbTrace
 10
8.628313000000446
 20
-2231.84010947696
 30
0.0
 11
-11.37168699999955
 21
-2235.173442810294
 31
0.0
 12
-11.37168699999955
 22
-2228.506776143626
 32
0.0
 13
-11.37168699999955
 23
-2228.506776143626
 33
0.0
  0
MTEXT
  5
2C22
330
2C24
100
AcDbEntity
  8
0
  6
BYBLOCK
 62
     0
100
AcDbMText
 10
-145.6858434999997
 20
-2231.84010947696
 30
0.0
 40
20.0
 41
0.0
 71
     5
 72
     1
  1
\A1;308.63
  0
ENDBLK
  5
63BA
330
2C24
100
AcDbEntity
  8
0
100
AcDbBlockEnd
  0
BLOCK
  5
63BB
330
2C30
100
AcDbEntity
  8
0
100
AcDbBlockBegin
  2
*D72
 70
     1
 71
     0
 10
0.0
 20
0.0
 30
0.0
  3
*D72
  1

  0
POINT
  5
2C26
330
2C30
100
AcDbEntity
  8
0
  6
BYBLOCK
 62
     0
100
AcDbPoint
 10
-299.9999999999999
 20
-1775.825
 30
0.0
  0
POINT
  5
2C27
330
2C30
100
AcDbEntity
  8
0
  6
BYBLOCK
 62
     0
100
AcDbPoint
 10
-29.79012599999953
 20
-1775.923396
 30
0.0
  0
LINE
  5
2C28
330
2C30
100
AcDbEntity
  8
0
  6
BYBLOCK
 62
     0
100
AcDbLine
 10
-299.9999999999999
 20
-1775.8875
 30
0.0
 11
-299.9999999999999
 21
-2069.675264210373
 31
0.0
  0
LINE
  5
2C29
330
2C30
100
AcDbEntity
  8
0
  6
BYBLOCK
 62
     0
100
AcDbLine
 10
-29.79012599999953
 20
-1775.985896
 30
0.0
 11
-29.79012599999953
 21
-2069.675264210373
 31
0.0
  0
LINE
  5
2C2A
330
2C30
100
AcDbEntity
  8
0
  6
BYBLOCK
 62
     0
100
AcDbLine
 10
-279.9999999999999
 20
-2069.495264210373
 30
0.0
 11
-259.1422612186324
 21
-2069.495264210373
 31
0.0
  0
SOLID
  5
2C2B
330
2C30
100
AcDbEntity
  8
0
  6
BYBLOCK
 62
     0
100
AcDbTrace
 10
-299.9999999999999
 20
-2069.495264210373
 30
0.0
 11
-279.9999999999999
 21
-2072.828597543707
 31
0.0
 12
-279.9999999999999
 22
-2066.161930877039
 32
0.0
 13
-279.9999999999999
 23
-2066.161930877039
 33
0.0
  0
LINE
  5
2C2C
330
2C30
100
AcDbEntity
  8
0
  6
BYBLOCK
 62
     0
100
AcDbLine
 10
-49.79012599999953
 20
-2069.495264210373
 30
0.0
 11
-169.1622612186324
 21
-2069.495264210373
 31
0.0
  0
SOLID
  5
2C2D
330
2C30
100
AcDbEntity
  8
0
  6
BYBLOCK
 62
     0
100
AcDbTrace
 10
-29.79012599999953
 20
-2069.495264210373
 30
0.0
 11
-49.79012599999953
 21
-2072.828597543707
 31
0.0
 12
-49.79012599999953
 22
-2066.161930877039
 32
0.0
 13
-49.79012599999953
 23
-2066.161930877039
 33
0.0
  0
MTEXT
  5
2C2E
330
2C30
100
AcDbEntity
  8
0
  6
BYBLOCK
 62
     0
100
AcDbMText
 10
-214.1522612186324
 20
-2069.495264210373
 30
0.0
 40
20.0
 41
0.0
 71
     5
 72
     1
  1
\A1;270.21
  0
ENDBLK
  5
63BC
330
2C30
100
AcDbEntity
  8
0
100
AcDbBlockEnd
  0
BLOCK
  5
63BD
330
2C3C
100
AcDbEntity
  8
0
100
AcDbBlockBegin
  2
*D73
 70
     1
 71
     0
 10
0.0
 20
0.0
 30
0.0
  3
*D73
  1

  0
POINT
  5
2C32
330
2C3C
100
AcDbEntity
  8
0
  6
BYBLOCK
 62
     0
100
AcDbPoint
 10
-299.9999999999999
 20
-1775.7
 30
0.0
  0
POINT
  5
2C33
330
2C3C
100
AcDbEntity
  8
0
  6
BYBLOCK
 62
     0
100
AcDbPoint
 10
-55.52650899999955
 20
-1802.88804
 30
0.0
  0
LINE
  5
2C34
330
2C3C
100
AcDbEntity
  8
0
  6
BYBLOCK
 62
     0
100
AcDbLine
 10
-299.9999999999999
 20
-1775.7625
 30
0.0
 11
-299.9999999999999
 21
-2028.611568054707
 31
0.0
  0
LINE
  5
2C35
330
2C3C
100
AcDbEntity
  8
0
  6
BYBLOCK
 62
     0
100
AcDbLine
 10
-55.52650899999955
 20
-1802.95054
 30
0.0
 11
-55.52650899999955
 21
-2028.611568054707
 31
0.0
  0
LINE
  5
2C36
330
2C3C
100
AcDbEntity
  8
0
  6
BYBLOCK
 62
     0
100
AcDbLine
 10
-279.9999999999999
 20
-2028.431568054707
 30
0.0
 11
-262.3323218625549
 21
-2028.431568054707
 31
0.0
  0
SOLID
  5
2C37
330
2C3C
100
AcDbEntity
  8
0
  6
BYBLOCK
 62
     0
100
AcDbTrace
 10
-299.9999999999999
 20
-2028.431568054707
 30
0.0
 11
-279.9999999999999
 21
-2031.764901388041
 31
0.0
 12
-279.9999999999999
 22
-2025.098234721373
 32
0.0
 13
-279.9999999999999
 23
-2025.098234721373
 33
0.0
  0
LINE
  5
2C38
330
2C3C
100
AcDbEntity
  8
0
  6
BYBLOCK
 62
     0
100
AcDbLine
 10
-75.52650899999955
 20
-2028.431568054707
 30
0.0
 11
-162.1523218625549
 21
-2028.431568054707
 31
0.0
  0
SOLID
  5
2C39
330
2C3C
100
AcDbEntity
  8
0
  6
BYBLOCK
 62
     0
100
AcDbTrace
 10
-55.52650899999955
 20
-2028.431568054707
 30
0.0
 11
-75.52650899999955
 21
-2031.764901388041
 31
0.0
 12
-75.52650899999955
 22
-2025.098234721373
 32
0.0
 13
-75.52650899999955
 23
-2025.098234721373
 33
0.0
  0
MTEXT
  5
2C3A
330
2C3C
100
AcDbEntity
  8
0
  6
BYBLOCK
 62
     0
100
AcDbMText
 10
-212.2423218625549
 20
-2028.431568054707
 30
0.0
 40
20.0
 41
0.0
 71
     5
 72
     1
  1
\A1;244.47
  0
ENDBLK
  5
63BE
330
2C3C
100
AcDbEntity
  8
0
100
AcDbBlockEnd
  0
BLOCK
  5
63BF
330
2C48
100
AcDbEntity
  8
0
100
AcDbBlockBegin
  2
*D74
 70
     1
 71
     0
 10
0.0
 20
0.0
 30
0.0
  3
*D74
  1

  0
POINT
  5
2C3E
330
2C48
100
AcDbEntity
  8
0
  6
BYBLOCK
 62
     0
100
AcDbPoint
 10
-299.9999999999999
 20
-1775.7
 30
0.0
  0
POINT
  5
2C3F
330
2C48
100
AcDbEntity
  8
0
  6
BYBLOCK
 62
     0
100
AcDbPoint
 10
8.628313000000446
 20
-1775.518856
 30
0.0
  0
LINE
  5
2C40
330
2C48
100
AcDbEntity
  8
0
  6
BYBLOCK
 62
     0
100
AcDbLine
 10
-299.9999999999999
 20
-1775.7625
 30
0.0
 11
-299.9999999999999
 21
-2115.513808756233
 31
0.0
  0
LINE
  5
2C41
330
2C48
100
AcDbEntity
  8
0
  6
BYBLOCK
 62
     0
100
AcDbLine
 10
8.628313000000446
 20
-1775.581356
 30
0.0
 11
8.628313000000446
 21
-2115.513808756233
 31
0.0
  0
LINE
  5
2C42
330
2C48
100
AcDbEntity
  8
0
  6
BYBLOCK
 62
     0
100
AcDbLine
 10
-279.9999999999999
 20
-2115.333808756233
 30
0.0
 11
-257.7674128284386
 21
-2115.333808756233
 31
0.0
  0
SOLID
  5
2C43
330
2C48
100
AcDbEntity
  8
0
  6
BYBLOCK
 62
     0
100
AcDbTrace
 10
-299.9999999999999
 20
-2115.333808756233
 30
0.0
 11
-279.9999999999999
 21
-2118.667142089567
 31
0.0
 12
-279.9999999999999
 22
-2112.000475422899
 32
0.0
 13
-279.9999999999999
 23
-2112.000475422899
 33
0.0
  0
LINE
  5
2C44
330
2C48
100
AcDbEntity
  8
0
  6
BYBLOCK
 62
     0
100
AcDbLine
 10
-11.37168699999955
 20
-2115.333808756233
 30
0.0
 11
-160.9874128284386
 21
-2115.333808756233
 31
0.0
  0
SOLID
  5
2C45
330
2C48
100
AcDbEntity
  8
0
  6
BYBLOCK
 62
     0
100
AcDbTrace
 10
8.628313000000446
 20
-2115.333808756233
 30
0.0
 11
-11.37168699999955
 21
-2118.667142089567
 31
0.0
 12
-11.37168699999955
 22
-2112.000475422899
 32
0.0
 13
-11.37168699999955
 23
-2112.000475422899
 33
0.0
  0
MTEXT
  5
2C46
330
2C48
100
AcDbEntity
  8
0
  6
BYBLOCK
 62
     0
100
AcDbMText
 10
-209.3774128284387
 20
-2115.333808756233
 30
0.0
 40
20.0
 41
0.0
 71
     5
 72
     1
  1
\A1;308.63
  0
ENDBLK
  5
63C0
330
2C48
100
AcDbEntity
  8
0
100
AcDbBlockEnd
  0
BLOCK
  5
63C1
330
2C55
100
AcDbEntity
  8
0
100
AcDbBlockBegin
  2
*D75
 70
     1
 71
     0
 10
0.0
 20
0.0
 30
0.0
  3
*D75
  1

  0
POINT
  5
2C4B
330
2C55
100
AcDbEntity
  8
0
  6
BYBLOCK
 62
     0
100
AcDbPoint
 10
-55.52650899999955
 20
-1802.95054
 30
0.0
  0
POINT
  5
2C4C
330
2C55
100
AcDbEntity
  8
0
  6
BYBLOCK
 62
     0
100
AcDbPoint
 10
7.874791786219134
 20
-3534.648512082562
 30
0.0
  0
LINE
  5
2C4D
330
2C55
100
AcDbEntity
  8
0
  6
BYBLOCK
 62
     0
100
AcDbLine
 10
-55.58900899999955
 20
-1802.95054
 30
0.0
 11
-205.8981260416333
 21
-1802.95054
 31
0.0
  0
LINE
  5
2C4E
330
2C55
100
AcDbEntity
  8
0
  6
BYBLOCK
 62
     0
100
AcDbLine
 10
7.812291786219134
 20
-3534.648512082562
 30
0.0
 11
-205.8981260416333
 21
-3534.648512082562
 31
0.0
  0
LINE
  5
2C4F
330
2C55
100
AcDbEntity
  8
0
  6
BYBLOCK
 62
     0
100
AcDbLine
 10
-205.7181260416333
 20
-1822.95054
 30
0.0
 11
-205.7181260416333
 21
-2617.009526041281
 31
0.0
  0
SOLID
  5
2C50
330
2C55
100
AcDbEntity
  8
0
  6
BYBLOCK
 62
     0
100
AcDbTrace
 10
-205.7181260416333
 20
-1802.95054
 30
0.0
 11
-209.0514593749673
 21
-1822.95054
 31
0.0
 12
-202.3847927082993
 22
-1822.95054
 32
0.0
 13
-202.3847927082993
 23
-1822.95054
 33
0.0
  0
LINE
  5
2C51
330
2C55
100
AcDbEntity
  8
0
  6
BYBLOCK
 62
     0
100
AcDbLine
 10
-205.7181260416333
 20
-3514.648512082562
 30
0.0
 11
-205.7181260416333
 21
-2720.589526041281
 31
0.0
  0
SOLID
  5
2C52
330
2C55
100
AcDbEntity
  8
0
  6
BYBLOCK
 62
     0
100
AcDbTrace
 10
-205.7181260416333
 20
-3534.648512082562
 30
0.0
 11
-209.0514593749673
 21
-3514.648512082562
 31
0.0
 12
-202.3847927082993
 22
-3514.648512082562
 32
0.0
 13
-202.3847927082993
 23
-3514.648512082562
 33
0.0
  0
MTEXT
  5
2C53
330
2C55
100
AcDbEntity
  8
0
  6
BYBLOCK
 62
     0
100
AcDbMText
 10
-205.7181260416333
 20
-2668.799526041281
 30
0.0
 40
20.0
 41
0.0
 71
     5
 72
     1
  1
\A1;1731.70
 11
6.123233995736766E-17
 21
1.0
 31
0.0
  0
ENDBLK
  5
63C2
330
2C55
100
AcDbEntity
  8
0
100
AcDbBlockEnd
  0
BLOCK
  5
63C3
330
2E14
100
AcDbEntity
  8
0
100
AcDbBlockBegin
  2
*D76
 70
     1
 71
     0
 10
0.0
 20
0.0
 30
0.0
  3
*D76
  1

  0
POINT
  5
2E0A
330
2E14
100
AcDbEntity
  8
0
  6
BYBLOCK
 62
     0
100
AcDbPoint
 10
1475.027364396698
 20
-794.4144563573028
 30
0.0
  0
POINT
  5
2E0B
330
2E14
100
AcDbEntity
  8
0
  6
BYBLOCK
 62
     0
100
AcDbPoint
 10
2151.175442799045
 20
-975.5877879290673
 30
0.0
  0
LINE
  5
2E0C
330
2E14
100
AcDbEntity
  8
0
  6
BYBLOCK
 62
     0
100
AcDbLine
 10
1475.043540587016
 20
-794.3540859931597
 30
0.0
 11
1501.653330050961
 21
-695.0449997350074
 31
0.0
  0
LINE
  5
2E0D
330
2E14
100
AcDbEntity
  8
0
  6
BYBLOCK
 62
     0
100
AcDbLine
 10
2151.191618989365
 20
-975.5274175649242
 30
0.0
 11
2177.801408453309
 21
-876.2183313067719
 31
0.0
  0
LINE
  5
2E0E
330
2E14
100
AcDbEntity
  8
0
  6
BYBLOCK
 62
     0
100
AcDbLine
 10
1520.925259148624
 20
-700.3952472857899
 30
0.0
 11
1797.865852803963
 21
-774.6012557071335
 31
0.0
  0
SOLID
  5
2E0F
330
2E14
100
AcDbEntity
  8
0
  6
BYBLOCK
 62
     0
100
AcDbTrace
 10
1501.606742622843
 20
-695.2188663837395
 30
0.0
 11
1520.062528998282
 21
-703.6150000400874
 31
0.0
 12
1521.787989298966
 22
-697.1754945314923
 32
0.0
 13
1521.787989298966
 23
-697.1754945314923
 33
0.0
  0
LINE
  5
2E10
330
2E14
100
AcDbEntity
  8
0
  6
BYBLOCK
 62
     0
100
AcDbLine
 10
2158.436304499409
 20
-871.2158170534535
 30
0.0
 11
1881.49571084407
 21
-797.0098086321099
 31
0.0
  0
SOLID
  5
2E11
330
2E14
100
AcDbEntity
  8
0
  6
BYBLOCK
 62
     0
100
AcDbTrace
 10
2177.754821025191
 20
-876.392197955504
 30
0.0
 11
2157.573574349067
 21
-874.4355698077511
 31
0.0
 12
2159.299034649751
 22
-867.9960642991561
 32
0.0
 13
2159.299034649751
 23
-867.9960642991561
 33
0.0
  0
MTEXT
  5
2E12
330
2E14
100
AcDbEntity
  8
0
  6
BYBLOCK
 62
     0
100
AcDbMText
 10
1839.680781824017
 20
-785.8055321696218
 30
0.0
 40
20.0
 41
0.0
 71
     5
 72
     1
  1
\A1;700.00
 11
0.9659258262890683
 21
-0.2588190451025207
 31
0.0
  0
ENDBLK
  5
63C4
330
2E14
100
AcDbEntity
  8
0
100
AcDbBlockEnd
  0
BLOCK
  5
63C5
330
2E23
100
AcDbEntity
  8
0
100
AcDbBlockBegin
  2
*D77
 70
     1
 71
     0
 10
0.0
 20
0.0
 30
0.0
  3
*D77
  1

  0
MTEXT
  5
2E17
330
2E23
100
AcDbEntity
  8
0
  6
BYBLOCK
 62
     0
100
AcDbMText
 10
2390.583059518876
 20
-1478.824988663701
 30
0.0
 40
20.0
 41
0.0
 71
     5
 72
     1
  1
\A1;30.00%%d
  0
POINT
  5
2E18
330
2E23
100
AcDbEntity
  8
0
  6
BYBLOCK
 62
     0
100
AcDbPoint
 10
2629.990676238709
 20
-975.5877879290672
 30
0.0
  0
POINT
  5
2E19
330
2E23
100
AcDbEntity
  8
0
  6
BYBLOCK
 62
     0
100
AcDbPoint
 10
2151.175442799045
 20
-975.5877879290672
 30
0.0
  0
POINT
  5
2E1A
330
2E23
100
AcDbEntity
  8
0
  6
BYBLOCK
 62
     0
100
AcDbPoint
 10
2047.647824758037
 20
-1361.958118444695
 30
0.0
  0
POINT
  5
2E1B
330
2E23
100
AcDbEntity
  8
0
  6
BYBLOCK
 62
     0
100
AcDbPoint
 10
2733.518294279717
 20
-1361.958118444695
 30
0.0
  0
SOLID
  5
2E1C
330
2E23
100
AcDbEntity
  8
0
  6
BYBLOCK
 62
     0
100
AcDbTrace
 10
2029.085687764673
 20
-1431.23295680098
 30
0.0
 11
2049.280425934512
 21
-1433.045044371378
 31
0.0
 12
2047.601114388986
 22
-1439.496738503738
 32
0.0
 13
2047.601114388986
 23
-1439.496738503738
 33
0.0
  0
SOLID
  5
2E1D
330
2E23
100
AcDbEntity
  8
0
  6
BYBLOCK
 62
     0
100
AcDbTrace
 10
2752.08043127308
 20
-1431.232956800981
 30
0.0
 11
2733.565004648768
 21
-1439.496738503738
 31
0.0
 12
2731.885693103242
 22
-1433.045044371379
 32
0.0
 13
2731.885693103242
 23
-1433.045044371379
 33
0.0
  0
LINE
  5
2E1E
330
2E23
100
AcDbEntity
  8
0
  6
BYBLOCK
 62
     0
100
AcDbLine
 10
2047.631648567718
 20
-1362.018488808837
 30
0.0
 11
2029.039100336555
 21
-1431.406823449712
 31
0.0
  0
LINE
  5
2E1F
330
2E23
100
AcDbEntity
  8
0
  6
BYBLOCK
 62
     0
100
AcDbLine
 10
2733.534470470037
 20
-1362.018488808838
 30
0.0
 11
2752.127018701199
 21
-1431.406823449713
 31
0.0
  0
ARC
  5
2E20
330
2E23
100
AcDbEntity
  8
0
  6
BYBLOCK
 62
     0
100
AcDbCircle
 10
2390.583059518878
 20
-82.1063986116796
 30
0.0
 40
1396.718590052021
100
AcDbArc
 50
255.8204411315698
 51
268.2936550200434
  0
ARC
  5
2E21
330
2E23
100
AcDbEntity
  8
0
  6
BYBLOCK
 62
     0
100
AcDbCircle
 10
2390.583059518878
 20
-82.1063986116796
 30
0.0
 40
1396.718590052021
100
AcDbArc
 50
271.7063449799565
 51
284.1795588684302
  0
ENDBLK
  5
63C6
330
2E23
100
AcDbEntity
  8
0
100
AcDbBlockEnd
  0
BLOCK
  5
63C7
330
2E41
100
AcDbEntity
  8
0
100
AcDbBlockBegin
  2
*D78
 70
     1
 71
     0
 10
0.0
 20
0.0
 30
0.0
  3
*D78
  1

  0
MTEXT
  5
2E35
330
2E41
100
AcDbEntity
  8
0
  6
BYBLOCK
 62
     0
100
AcDbMText
 10
1313.76161777546
 20
-694.3494144972547
 30
0.0
 40
20.0
 41
0.0
 71
     5
 72
     1
  1
\A1;15.00%%d
 11
0.9914448613738104
 21
-0.1305261922200514
 31
0.0
  0
POINT
  5
2E36
330
2E41
100
AcDbEntity
  8
0
  6
BYBLOCK
 62
     0
100
AcDbPoint
 10
1371.499746355689
 20
-1180.78478687293
 30
0.0
  0
POINT
  5
2E37
330
2E41
100
AcDbEntity
  8
0
  6
BYBLOCK
 62
     0
100
AcDbPoint
 10
1132.092129635857
 20
-1149.266176190319
 30
0.0
  0
POINT
  5
2E38
330
2E41
100
AcDbEntity
  8
0
  6
BYBLOCK
 62
     0
100
AcDbPoint
 10
1132.092129635857
 20
-749.2661761903191
 30
0.0
  0
POINT
  5
2E39
330
2E41
100
AcDbEntity
  8
0
  6
BYBLOCK
 62
     0
100
AcDbPoint
 10
1475.027364396698
 20
-794.4144563573028
 30
0.0
  0
SOLID
  5
2E3A
330
2E41
100
AcDbEntity
  8
0
  6
BYBLOCK
 62
     0
100
AcDbTrace
 10
1492.322690604697
 20
-729.8674202155696
 30
0.0
 11
1472.127906815235
 21
-728.0558411231773
 31
0.0
 12
1473.807055914901
 22
-721.6041047099664
 32
0.0
 13
1473.807055914901
 23
-721.6041047099664
 33
0.0
  0
SOLID
  5
2E3B
330
2E41
100
AcDbEntity
  8
0
  6
BYBLOCK
 62
     0
100
AcDbTrace
 10
1132.092129635857
 20
-682.4421671567131
 30
0.0
 11
1152.115562801406
 21
-679.2526161889562
 31
0.0
 12
1152.067664025243
 22
-685.9191107814465
 32
0.0
 13
1152.067664025243
 23
-685.9191107814465
 33
0.0
  0
LINE
  5
2E3C
330
2E41
100
AcDbEntity
  8
0
  6
BYBLOCK
 62
     0
100
AcDbLine
 10
1475.043540587016
 20
-794.3540859931597
 30
0.0
 11
1492.369278032815
 21
-729.6935535668375
 31
0.0
  0
LINE
  5
2E3D
330
2E41
100
AcDbEntity
  8
0
  6
BYBLOCK
 62
     0
100
AcDbLine
 10
1132.092129635857
 20
-749.2036761903191
 30
0.0
 11
1132.092129635857
 21
-682.2621671567131
 31
0.0
  0
ARC
  5
2E3E
330
2E41
100
AcDbEntity
  8
0
  6
BYBLOCK
 62
     0
100
AcDbCircle
 10
1132.092129635857
 20
-2074.26617619032
 30
0.0
 40
1391.824009033607
100
AcDbArc
 50
75.82332639906338
 51
80.85354644238861
  0
ARC
  5
2E3F
330
2E41
100
AcDbEntity
  8
0
  6
BYBLOCK
 62
     0
100
AcDbCircle
 10
1132.092129635857
 20
-2074.26617619032
 30
0.0
 40
1391.824009033607
100
AcDbArc
 50
84.14645355761141
 51
89.17667360093667
  0
ENDBLK
  5
63C8
330
2E41
100
AcDbEntity
  8
0
100
AcDbBlockEnd
  0
BLOCK
  5
63C9
330
2E4E
100
AcDbEntity
  8
0
100
AcDbBlockBegin
  2
*D79
 70
     1
 71
     0
 10
0.0
 20
0.0
 30
0.0
  3
*D79
  1

  0
POINT
  5
2E44
330
2E4E
100
AcDbEntity
  8
0
  6
BYBLOCK
 62
     0
100
AcDbPoint
 10
2629.990676238709
 20
-975.5877879290673
 30
0.0
  0
POINT
  5
2E45
330
2E4E
100
AcDbEntity
  8
0
  6
BYBLOCK
 62
     0
100
AcDbPoint
 10
3306.138754641057
 20
-794.4144563573028
 30
0.0
  0
LINE
  5
2E46
330
2E4E
100
AcDbEntity
  8
0
  6
BYBLOCK
 62
     0
100
AcDbLine
 10
2629.97450004839
 20
-975.5274175649242
 30
0.0
 11
2568.211337909984
 21
-745.0241584282793
 31
0.0
  0
LINE
  5
2E47
330
2E4E
100
AcDbEntity
  8
0
  6
BYBLOCK
 62
     0
100
AcDbLine
 10
3306.122578450738
 20
-794.3540859931597
 30
0.0
 11
3244.359416312332
 21
-563.8508268565148
 31
0.0
  0
LINE
  5
2E48
330
2E4E
100
AcDbEntity
  8
0
  6
BYBLOCK
 62
     0
100
AcDbLine
 10
2587.576441863884
 20
-740.021644174961
 30
0.0
 11
2864.517035519223
 21
-665.8156357536172
 31
0.0
  0
SOLID
  5
2E49
330
2E4E
100
AcDbEntity
  8
0
  6
BYBLOCK
 62
     0
100
AcDbTrace
 10
2568.257925338103
 20
-745.1980250770114
 30
0.0
 11
2588.439172014226
 21
-743.2413969292585
 31
0.0
 12
2586.713711713542
 22
-736.8018914206634
 32
0.0
 13
2586.713711713542
 23
-736.8018914206634
 33
0.0
  0
LINE
  5
2E4A
330
2E4E
100
AcDbEntity
  8
0
  6
BYBLOCK
 62
     0
100
AcDbLine
 10
3225.087487214669
 20
-569.2010744072973
 30
0.0
 11
2948.146893559331
 21
-643.407082828641
 31
0.0
  0
SOLID
  5
2E4B
330
2E4E
100
AcDbEntity
  8
0
  6
BYBLOCK
 62
     0
100
AcDbTrace
 10
3244.406003740451
 20
-564.0246935052469
 30
0.0
 11
3225.950217365011
 21
-572.4208271615948
 31
0.0
 12
3224.224757064328
 22
-565.9813216529998
 32
0.0
 13
3224.224757064328
 23
-565.9813216529998
 33
0.0
  0
MTEXT
  5
2E4C
330
2E4E
100
AcDbEntity
  8
0
  6
BYBLOCK
 62
     0
100
AcDbMText
 10
2906.331964539277
 20
-654.6113592911291
 30
0.0
 40
20.0
 41
0.0
 71
     5
 72
     1
  1
\A1;700.00
 11
0.9659258262890683
 21
0.2588190451025207
 31
0.0
  0
ENDBLK
  5
63CA
330
2E4E
100
AcDbEntity
  8
0
100
AcDbBlockEnd
  0
BLOCK
  5
63CB
330
2E5D
100
AcDbEntity
  8
0
100
AcDbBlockBegin
  2
*D80
 70
     1
 71
     0
 10
0.0
 20
0.0
 30
0.0
  3
*D80
  1

  0
MTEXT
  5
2E51
330
2E5D
100
AcDbEntity
  8
0
  6
BYBLOCK
 62
     0
100
AcDbMText
 10
3649.073989401898
 20
-572.7862647441978
 30
0.0
 40
20.0
 41
0.0
 71
     5
 72
     1
  1
\A1;30.00%%d
  0
POINT
  5
2E52
330
2E5D
100
AcDbEntity
  8
0
  6
BYBLOCK
 62
     0
100
AcDbPoint
 10
3888.481606121728
 20
-1180.784786872931
 30
0.0
  0
POINT
  5
2E53
330
2E5D
100
AcDbEntity
  8
0
  6
BYBLOCK
 62
     0
100
AcDbPoint
 10
3306.138754641057
 20
-794.4144563573028
 30
0.0
  0
POINT
  5
2E54
330
2E5D
100
AcDbEntity
  8
0
  6
BYBLOCK
 62
     0
100
AcDbPoint
 10
3409.666372682065
 20
-1180.78478687293
 30
0.0
  0
POINT
  5
2E55
330
2E5D
100
AcDbEntity
  8
0
  6
BYBLOCK
 62
     0
100
AcDbPoint
 10
3992.009224162737
 20
-794.414456357303
 30
0.0
  0
SOLID
  5
2E56
330
2E5D
100
AcDbEntity
  8
0
  6
BYBLOCK
 62
     0
100
AcDbTrace
 10
4037.685586323
 20
-623.9479520702878
 30
0.0
 11
4017.491755909523
 21
-622.1257763534991
 31
0.0
 12
4019.1742902184
 22
-615.6749219338183
 32
0.0
 13
4019.1742902184
 23
-615.6749219338183
 33
0.0
  0
SOLID
  5
2E57
330
2E5D
100
AcDbEntity
  8
0
  6
BYBLOCK
 62
     0
100
AcDbTrace
 10
3260.462392480795
 20
-623.947952070287
 30
0.0
 11
3278.973688585395
 21
-615.6749219338177
 31
0.0
 12
3280.656222894272
 22
-622.1257763534985
 32
0.0
 13
3280.656222894272
 23
-622.1257763534985
 33
0.0
  0
LINE
  5
2E58
330
2E5D
100
AcDbEntity
  8
0
  6
BYBLOCK
 62
     0
100
AcDbLine
 10
3992.025400353056
 20
-794.35408599316
 30
0.0
 11
4037.732173751119
 21
-623.7740854215557
 31
0.0
  0
LINE
  5
2E59
330
2E5D
100
AcDbEntity
  8
0
  6
BYBLOCK
 62
     0
100
AcDbLine
 10
3306.122578450738
 20
-794.3540859931597
 30
0.0
 11
3260.415805052676
 21
-623.7740854215549
 31
0.0
  0
ARC
  5
2E5A
330
2E5D
100
AcDbEntity
  8
0
  6
BYBLOCK
 62
     0
100
AcDbCircle
 10
3649.073989401896
 20
-2074.266176190317
 30
0.0
 40
1501.47991144612
100
AcDbArc
 50
75.76319639925531
 51
88.41274180511738
  0
ARC
  5
2E5B
330
2E5D
100
AcDbEntity
  8
0
  6
BYBLOCK
 62
     0
100
AcDbCircle
 10
3649.073989401896
 20
-2074.266176190317
 30
0.0
 40
1501.47991144612
100
AcDbArc
 50
91.58725819488254
 51
104.2368036007446
  0
ENDBLK
  5
63CC
330
2E5D
100
AcDbEntity
  8
0
100
AcDbBlockEnd
  0
BLOCK
  5
63CD
330
2E6C
100
AcDbEntity
  8
0
100
AcDbBlockBegin
  2
*D81
 70
     1
 71
     0
 10
0.0
 20
0.0
 30
0.0
  3
*D81
  1

  0
MTEXT
  5
2E60
330
2E6C
100
AcDbEntity
  8
0
  6
BYBLOCK
 62
     0
100
AcDbMText
 10
4399.211752568662
 20
-774.9894577094112
 30
0.0
 40
20.0
 41
0.0
 71
     5
 72
     1
  1
\A1;30.00%%d
 11
0.8660254037844389
 21
-0.4999999999999994
 31
0.0
  0
POINT
  5
2E61
330
2E6C
100
AcDbEntity
  8
0
  6
BYBLOCK
 62
     0
100
AcDbPoint
 10
4303.147761999453
 20
-1420.192403592762
 30
0.0
  0
POINT
  5
2E62
330
2E6C
100
AcDbEntity
  8
0
  6
BYBLOCK
 62
     0
100
AcDbPoint
 10
3992.009224162737
 20
-794.414456357303
 30
0.0
  0
POINT
  5
2E63
330
2E6C
100
AcDbEntity
  8
0
  6
BYBLOCK
 62
     0
100
AcDbPoint
 10
3888.481606121728
 20
-1180.784786872931
 30
0.0
  0
POINT
  5
2E64
330
2E6C
100
AcDbEntity
  8
0
  6
BYBLOCK
 62
     0
100
AcDbPoint
 10
4585.990474474072
 20
-1137.349691118143
 30
0.0
  0
SOLID
  5
2E65
330
2E6C
100
AcDbEntity
  8
0
  6
BYBLOCK
 62
     0
100
AcDbTrace
 10
4709.928987720553
 20
-1013.411177871662
 30
0.0
 11
4693.351643019053
 21
-1001.736300837672
 31
0.0
 12
4698.03416231124
 22
-996.9909391525355
 32
0.0
 13
4698.03416231124
 23
-996.9909391525355
 33
0.0
  0
SOLID
  5
2E66
330
2E6C
100
AcDbEntity
  8
0
  6
BYBLOCK
 62
     0
100
AcDbTrace
 10
4037.373868518223
 20
-625.1112987553358
 30
0.0
 11
4057.541625089848
 21
-627.2024003738183
 31
0.0
 12
4055.773280966468
 22
-633.6302618771309
 32
0.0
 13
4055.773280966468
 23
-633.6302618771309
 33
0.0
  0
LINE
  5
2E67
330
2E6C
100
AcDbEntity
  8
0
  6
BYBLOCK
 62
     0
100
AcDbLine
 10
4586.034668647896
 20
-1137.305496944319
 30
0.0
 11
4710.056266941168
 21
-1013.283898651048
 31
0.0
  0
LINE
  5
2E68
330
2E6C
100
AcDbEntity
  8
0
  6
BYBLOCK
 62
     0
100
AcDbLine
 10
3992.025400353056
 20
-794.35408599316
 30
0.0
 11
4037.420455946342
 21
-624.9374321066038
 31
0.0
  0
ARC
  5
2E69
330
2E6C
100
AcDbEntity
  8
0
  6
BYBLOCK
 62
     0
100
AcDbCircle
 10
3649.073989401895
 20
-2074.266176190321
 30
0.0
 40
1500.275526333534
100
AcDbArc
 50
45.76380908404072
 51
58.41146726595268
  0
ARC
  5
2E6A
330
2E6C
100
AcDbEntity
  8
0
  6
BYBLOCK
 62
     0
100
AcDbCircle
 10
3649.073989401895
 20
-2074.266176190321
 30
0.0
 40
1500.275526333534
100
AcDbArc
 50
61.58853273404735
 51
74.23619091595928
  0
ENDBLK
  5
63CE
330
2E6C
100
AcDbEntity
  8
0
100
AcDbBlockEnd
  0
BLOCK
  5
63CF
330
2E7B
100
AcDbEntity
  8
0
100
AcDbBlockBegin
  2
*D82
 70
     1
 71
     0
 10
0.0
 20
0.0
 30
0.0
  3
*D82
  1

  0
MTEXT
  5
2E6F
330
2E7B
100
AcDbEntity
  8
0
  6
BYBLOCK
 62
     0
100
AcDbMText
 10
4945.796537250424
 20
-1325.603064125713
 30
0.0
 40
20.0
 41
0.0
 71
     5
 72
     1
  1
\A1;30.00%%d
 11
0.5000000000000011
 21
-0.866025403784438
 31
0.0
  0
POINT
  5
2E70
330
2E7B
100
AcDbEntity
  8
0
  6
BYBLOCK
 62
     0
100
AcDbPoint
 10
4928.925709234912
 20
-1731.330941429479
 30
0.0
  0
POINT
  5
2E71
330
2E7B
100
AcDbEntity
  8
0
  6
BYBLOCK
 62
     0
100
AcDbPoint
 10
4585.990474474072
 20
-1137.349691118143
 30
0.0
  0
POINT
  5
2E72
330
2E7B
100
AcDbEntity
  8
0
  6
BYBLOCK
 62
     0
100
AcDbPoint
 10
4303.147761999453
 20
-1420.192403592762
 30
0.0
  0
POINT
  5
2E73
330
2E7B
100
AcDbEntity
  8
0
  6
BYBLOCK
 62
     0
100
AcDbPoint
 10
4542.555378719285
 20
-1834.858559470487
 30
0.0
  0
SOLID
  5
2E74
330
2E7B
100
AcDbEntity
  8
0
  6
BYBLOCK
 62
     0
100
AcDbTrace
 10
5095.380059668194
 20
-1686.729632654233
 30
0.0
 11
5086.860854975775
 21
-1668.330332055575
 31
0.0
 12
5093.288693261417
 22
-1666.561903539042
 32
0.0
 13
5093.288693261417
 23
-1666.561903539042
 33
0.0
  0
SOLID
  5
2E75
330
2E7B
100
AcDbEntity
  8
0
  6
BYBLOCK
 62
     0
100
AcDbTrace
 10
4707.843516132109
 20
-1015.496649460106
 30
0.0
 11
4724.263598679119
 21
-1027.391690454591
 31
0.0
 12
4719.518175516203
 22
-1032.074147443109
 32
0.0
 13
4719.518175516203
 23
-1032.074147443109
 33
0.0
  0
LINE
  5
2E76
330
2E7B
100
AcDbEntity
  8
0
  6
BYBLOCK
 62
     0
100
AcDbLine
 10
4928.986079599054
 20
-1731.31476523916
 30
0.0
 11
5095.553926316927
 21
-1686.683045226115
 31
0.0
  0
LINE
  5
2E77
330
2E7B
100
AcDbEntity
  8
0
  6
BYBLOCK
 62
     0
100
AcDbLine
 10
4586.034668647896
 20
-1137.305496944319
 30
0.0
 11
4707.970795352722
 21
-1015.369370239492
 31
0.0
  0
ARC
  5
2E78
330
2E7B
100
AcDbEntity
  8
0
  6
BYBLOCK
 62
     0
100
AcDbCircle
 10
3649.073989401898
 20
-2074.266176190319
 30
0.0
 40
1497.326224129209
100
AcDbArc
 50
15.76531359070053
 51
28.40833750880162
  0
ARC
  5
2E79
330
2E7B
100
AcDbEntity
  8
0
  6
BYBLOCK
 62
     0
100
AcDbCircle
 10
3649.073989401898
 20
-2074.266176190319
 30
0.0
 40
1497.326224129209
100
AcDbArc
 50
31.59166249119847
 51
44.23468640929956
  0
ENDBLK
  5
63D0
330
2E7B
100
AcDbEntity
  8
0
100
AcDbBlockEnd
  0
BLOCK
  5
63D1
330
2E8A
100
AcDbEntity
  8
0
100
AcDbBlockBegin
  2
*D83
 70
     1
 71
     0
 10
0.0
 20
0.0
 30
0.0
  3
*D83
  1

  0
MTEXT
  5
2E7E
330
2E8A
100
AcDbEntity
  8
0
  6
BYBLOCK
 62
     0
100
AcDbMText
 10
5148.503299136627
 20
-2074.266176190319
 30
0.0
 40
20.0
 41
0.0
 71
     5
 72
     1
  1
\A1;30.00%%d
 11
6.123233995736766E-17
 21
1.0
 31
0.0
  0
POINT
  5
2E7F
330
2E8A
100
AcDbEntity
  8
0
  6
BYBLOCK
 62
     0
100
AcDbPoint
 10
4928.925709234912
 20
-1731.330941429479
 30
0.0
  0
POINT
  5
2E80
330
2E8A
100
AcDbEntity
  8
0
  6
BYBLOCK
 62
     0
100
AcDbPoint
 10
4542.555378719284
 20
-2313.67379291015
 30
0.0
  0
POINT
  5
2E81
330
2E8A
100
AcDbEntity
  8
0
  6
BYBLOCK
 62
     0
100
AcDbPoint
 10
4928.925709234911
 20
-2417.201410951158
 30
0.0
  0
POINT
  5
2E82
330
2E8A
100
AcDbEntity
  8
0
  6
BYBLOCK
 62
     0
100
AcDbPoint
 10
4542.555378719285
 20
-1834.858559470487
 30
0.0
  0
SOLID
  5
2E83
330
2E8A
100
AcDbEntity
  8
0
  6
BYBLOCK
 62
     0
100
AcDbTrace
 10
5097.411484369463
 20
-2462.347038334593
 30
0.0
 11
5099.233476151275
 21
-2442.153191324721
 31
0.0
 12
5105.684345896002
 22
-2443.835666876113
 32
0.0
 13
5105.684345896002
 23
-2443.835666876113
 33
0.0
  0
SOLID
  5
2E84
330
2E8A
100
AcDbEntity
  8
0
  6
BYBLOCK
 62
     0
100
AcDbTrace
 10
5097.411484369463
 20
-1686.185314046044
 30
0.0
 11
5105.684345896002
 21
-1704.696685504524
 31
0.0
 12
5099.233476151275
 22
-1706.379161055916
 32
0.0
 13
5099.233476151275
 23
-1706.379161055916
 33
0.0
  0
LINE
  5
2E85
330
2E8A
100
AcDbEntity
  8
0
  6
BYBLOCK
 62
     0
100
AcDbLine
 10
4928.986079599054
 20
-2417.217587141478
 30
0.0
 11
5097.585351018195
 21
-2462.393625762712
 31
0.0
  0
LINE
  5
2E86
330
2E8A
100
AcDbEntity
  8
0
  6
BYBLOCK
 62
     0
100
AcDbLine
 10
4928.986079599054
 20
-1731.31476523916
 30
0.0
 11
5097.585351018195
 21
-1686.138726617925
 31
0.0
  0
ARC
  5
2E87
330
2E8A
100
AcDbEntity
  8
0
  6
BYBLOCK
 62
     0
100
AcDbCircle
 10
3649.073989401898
 20
-2074.266176190319
 30
0.0
 40
1499.429309734729
100
AcDbArc
 50
345.7642401530492
 51
358.41057053305
  0
ARC
  5
2E88
330
2E8A
100
AcDbEntity
  8
0
  6
BYBLOCK
 62
     0
100
AcDbCircle
 10
3649.073989401898
 20
-2074.266176190319
 30
0.0
 40
1499.429309734729
100
AcDbArc
 50
1.5894294669499
 51
14.23575984695097
  0
ENDBLK
  5
63D2
330
2E8A
100
AcDbEntity
  8
0
100
AcDbBlockEnd
  0
BLOCK
  5
63D3
330
2E99
100
AcDbEntity
  8
0
100
AcDbBlockBegin
  2
*D84
 70
     1
 71
     0
 10
0.0
 20
0.0
 30
0.0
  3
*D84
  1

  0
MTEXT
  5
2E8D
330
2E99
100
AcDbEntity
  8
0
  6
BYBLOCK
 62
     0
100
AcDbMText
 10
5034.52898538185
 20
-2648.140425582778
 30
0.0
 40
20.0
 41
0.0
 71
     5
 72
     1
  1
\A1;15.00%%d
 11
0.3826834323650902
 21
0.9238795325112865
 31
0.0
  0
POINT
  5
2E8E
330
2E99
100
AcDbEntity
  8
0
  6
BYBLOCK
 62
     0
100
AcDbPoint
 10
4928.925709234911
 20
-2417.201410951158
 30
0.0
  0
POINT
  5
2E8F
330
2E99
100
AcDbEntity
  8
0
  6
BYBLOCK
 62
     0
100
AcDbPoint
 10
4450.147487902502
 20
-2536.766176190319
 30
0.0
  0
POINT
  5
2E90
330
2E99
100
AcDbEntity
  8
0
  6
BYBLOCK
 62
     0
100
AcDbPoint
 10
4796.557649416277
 20
-2736.766176190319
 30
0.0
  0
POINT
  5
2E91
330
2E99
100
AcDbEntity
  8
0
  6
BYBLOCK
 62
     0
100
AcDbPoint
 10
4542.555378719284
 20
-2313.67379291015
 30
0.0
  0
SOLID
  5
2E92
330
2E99
100
AcDbEntity
  8
0
  6
BYBLOCK
 62
     0
100
AcDbTrace
 10
4947.770605244557
 20
-2824.069016942735
 30
0.0
 11
4954.757081292288
 21
-2805.034830237084
 31
0.0
 12
4960.552683680731
 22
-2808.329589317736
 32
0.0
 13
4960.552683680731
 23
-2808.329589317736
 33
0.0
  0
SOLID
  5
2E93
330
2E99
100
AcDbEntity
  8
0
  6
BYBLOCK
 62
     0
100
AcDbTrace
 10
5097.581846417233
 20
-2462.392686707715
 30
0.0
 11
5095.490684751478
 21
-2482.560437053225
 31
0.0
 12
5089.062828513244
 22
-2480.792073791601
 32
0.0
 13
5089.062828513244
 23
-2480.792073791601
 33
0.0
  0
LINE
  5
2E94
330
2E99
100
AcDbEntity
  8
0
  6
BYBLOCK
 62
     0
100
AcDbLine
 10
4796.611776004013
 20
-2736.797426190319
 30
0.0
 11
4947.926489817238
 21
-2824.159016942735
 31
0.0
  0
LINE
  5
2E95
330
2E99
100
AcDbEntity
  8
0
  6
BYBLOCK
 62
     0
100
AcDbLine
 10
4928.986079599054
 20
-2417.217587141478
 30
0.0
 11
5097.755713065964
 21
-2462.439274135834
 31
0.0
  0
ARC
  5
2E96
330
2E99
100
AcDbEntity
  8
0
  6
BYBLOCK
 62
     0
100
AcDbCircle
 10
3649.073989401896
 20
-2074.266176190318
 30
0.0
 40
1499.605681504833
100
AcDbArc
 50
330.7641502678289
 51
335.9719117155552
  0
ARC
  5
2E97
330
2E99
100
AcDbEntity
  8
0
  6
BYBLOCK
 62
     0
100
AcDbCircle
 10
3649.073989401896
 20
-2074.266176190318
 30
0.0
 40
1499.605681504833
100
AcDbArc
 50
339.0280882844447
 51
344.235849732171
  0
ENDBLK
  5
63D4
330
2E99
100
AcDbEntity
  8
0
100
AcDbBlockEnd
  0
BLOCK
  5
63D5
330
2EA8
100
AcDbEntity
  8
0
100
AcDbBlockBegin
  2
*D85
 70
     1
 71
     0
 10
0.0
 20
0.0
 30
0.0
  3
*D85
  1

  0
MTEXT
  5
2E9C
330
2EA8
100
AcDbEntity
  8
0
  6
BYBLOCK
 62
     0
100
AcDbMText
 10
-124.6458036242168
 20
-5115.493782648927
 30
0.0
 40
20.0
 41
0.0
 71
     5
 72
     1
  1
\A1;15.00%%d
 11
0.6087614290087208
 21
-0.7933533402912351
 31
0.0
  0
POINT
  5
2E9D
330
2EA8
100
AcDbEntity
  8
0
  6
BYBLOCK
 62
     0
100
AcDbPoint
 10
-1.675279280290905
 20
-4803.14
 30
0.0
  0
POINT
  5
2E9E
330
2EA8
100
AcDbEntity
  8
0
  6
BYBLOCK
 62
     0
100
AcDbPoint
 10
491.7346081365346
 20
-4794.713772597556
 30
0.0
  0
POINT
  5
2E9F
330
2EA8
100
AcDbEntity
  8
0
  6
BYBLOCK
 62
     0
100
AcDbPoint
 10
208.8918956619155
 20
-5077.556485072176
 30
0.0
  0
POINT
  5
2EA0
330
2EA8
100
AcDbEntity
  8
0
  6
BYBLOCK
 62
     0
100
AcDbPoint
 10
344.7348822334845
 20
-4603.14
 30
0.0
  0
SOLID
  5
2EA1
330
2EA8
100
AcDbEntity
  8
0
  6
BYBLOCK
 62
     0
100
AcDbTrace
 10
-241.0208441792875
 20
-4941.326226323778
 30
0.0
 11
-228.0365914406601
 21
-4956.899289347171
 31
0.0
 12
-233.7891660827686
 22
-4960.268611153028
 32
0.0
 13
-233.7891660827686
 23
-4960.268611153028
 33
0.0
  0
SOLID
  5
2EA2
330
2EA8
100
AcDbEntity
  8
0
  6
BYBLOCK
 62
     0
100
AcDbTrace
 10
13.46706026166944
 20
-5272.981320472421
 30
0.0
 11
-2.958182436980637
 21
-5261.093405878113
 31
0.0
 12
1.785208388128398
 22
-5256.40889011608
 32
0.0
 13
1.785208388128398
 23
-5256.40889011608
 33
0.0
  0
LINE
  5
2EA3
330
2EA8
100
AcDbEntity
  8
0
  6
BYBLOCK
 62
     0
100
AcDbLine
 10
-1.729405868027433
 20
-4803.17125
 30
0.0
 11
-241.1767287519688
 21
-4941.416226323778
 31
0.0
  0
LINE
  5
2EA4
330
2EA8
100
AcDbEntity
  8
0
  6
BYBLOCK
 62
     0
100
AcDbLine
 10
208.8477014880914
 20
-5077.600679246
 30
0.0
 11
13.33978104105581
 21
-5273.108599693035
 31
0.0
  0
ARC
  5
2EA5
330
2EA8
100
AcDbEntity
  8
0
  6
BYBLOCK
 62
     0
100
AcDbCircle
 10
1145.808380734089
 20
-4140.640000000001
 30
0.0
 40
1601.372452647555
100
AcDbArc
 50
210.7155880795272
 51
216.06904217974
  0
ARC
  5
2EA6
330
2EA8
100
AcDbEntity
  8
0
  6
BYBLOCK
 62
     0
100
AcDbCircle
 10
1145.808380734089
 20
-4140.640000000001
 30
0.0
 40
1601.372452647555
100
AcDbArc
 50
218.93095782026
 51
224.2844119204727
  0
ENDBLK
  5
63D6
330
2EA8
100
AcDbEntity
  8
0
100
AcDbBlockEnd
  0
BLOCK
  5
63D7
330
39A9
100
AcDbEntity
  8
GLEISE
100
AcDbBlockBegin
  2
258
 70
     0
 71
     0
 10
0.0
 20
0.0
 30
0.0
  3
258
  1

  0
ENDBLK
  5
63D8
330
39A9
100
AcDbEntity
  8
GLEISE
100
AcDbBlockEnd
  0
BLOCK
  5
63D9
330
39FC
100
AcDbEntity
  8
GLEISE
100
AcDbBlockBegin
  2
11
 70
     0
 71
     0
 10
0.0
 20
0.0
 30
0.0
  3
11
  1

  0
ENDBLK
  5
63DA
330
39FC
100
AcDbEntity
  8
GLEISE
100
AcDbBlockEnd
  0
BLOCK
  5
63DB
330
3A4F
100
AcDbEntity
  8
GLEISE
100
AcDbBlockBegin
  2
14
 70
     0
 71
     0
 10
0.0
 20
0.0
 30
0.0
  3
14
  1

  0
ENDBLK
  5
63DC
330
3A4F
100
AcDbEntity
  8
GLEISE
100
AcDbBlockEnd
  0
BLOCK
  5
63DD
330
3AA2
100
AcDbEntity
  8
GLEISE
100
AcDbBlockBegin
  2
17
 70
     0
 71
     0
 10
0.0
 20
0.0
 30
0.0
  3
17
  1

  0
ENDBLK
  5
63DE
330
3AA2
100
AcDbEntity
  8
GLEISE
100
AcDbBlockEnd
  0
BLOCK
  5
63DF
330
3AF5
100
AcDbEntity
  8
GLEISE
100
AcDbBlockBegin
  2
18
 70
     0
 71
     0
 10
0.0
 20
0.0
 30
0.0
  3
18
  1

  0
ENDBLK
  5
63E0
330
3AF5
100
AcDbEntity
  8
GLEISE
100
AcDbBlockEnd
  0
BLOCK
  5
63E1
330
3B48
100
AcDbEntity
  8
GLEISE
100
AcDbBlockBegin
  2
21
 70
     0
 71
     0
 10
0.0
 20
0.0
 30
0.0
  3
21
  1

  0
ENDBLK
  5
63E2
330
3B48
100
AcDbEntity
  8
GLEISE
100
AcDbBlockEnd
  0
BLOCK
  5
63E3
330
3B9B
100
AcDbEntity
  8
GLEISE
100
AcDbBlockBegin
  2
751
 70
     0
 71
     0
 10
0.0
 20
0.0
 30
0.0
  3
751
  1

  0
ENDBLK
  5
63E4
330
3B9B
100
AcDbEntity
  8
GLEISE
100
AcDbBlockEnd
  0
BLOCK
  5
63E5
330
3BEE
100
AcDbEntity
  8
GLEISE
100
AcDbBlockBegin
  2
24
 70
     0
 71
     0
 10
0.0
 20
0.0
 30
0.0
  3
24
  1

  0
ENDBLK
  5
63E6
330
3BEE
100
AcDbEntity
  8
GLEISE
100
AcDbBlockEnd
  0
BLOCK
  5
63E7
330
3C41
100
AcDbEntity
  8
GLEISE
100
AcDbBlockBegin
  2
25
 70
     0
 71
     0
 10
0.0
 20
0.0
 30
0.0
  3
25
  1

  0
ENDBLK
  5
63E8
330
3C41
100
AcDbEntity
  8
GLEISE
100
AcDbBlockEnd
  0
BLOCK
  5
63E9
330
3C91
100
AcDbEntity
  8
GLEISE
100
AcDbBlockBegin
  2
26
 70
     0
 71
     0
 10
0.0
 20
0.0
 30
0.0
  3
26
  1

  0
ENDBLK
  5
63EA
330
3C91
100
AcDbEntity
  8
GLEISE
100
AcDbBlockEnd
  0
BLOCK
  5
63EB
330
3CAD
100
AcDbEntity
  8
GLEISE
100
AcDbBlockBegin
  2
27
 70
     0
 71
     0
 10
0.0
 20
0.0
 30
0.0
  3
27
  1

  0
ENDBLK
  5
63EC
330
3CAD
100
AcDbEntity
  8
GLEISE
100
AcDbBlockEnd
  0
BLOCK
  5
63ED
330
3CB6
100
AcDbEntity
  8
GLEISE
100
AcDbBlockBegin
  2
28
 70
     0
 71
     0
 10
0.0
 20
0.0
 30
0.0
  3
28
  1

  0
ENDBLK
  5
63EE
330
3CB6
100
AcDbEntity
  8
GLEISE
100
AcDbBlockEnd
  0
BLOCK
  5
63EF
330
3CBF
100
AcDbEntity
  8
GLEISE
100
AcDbBlockBegin
  2
29
 70
     0
 71
     0
 10
0.0
 20
0.0
 30
0.0
  3
29
  1

  0
ENDBLK
  5
63F0
330
3CBF
100
AcDbEntity
  8
GLEISE
100
AcDbBlockEnd
  0
BLOCK
  5
63F1
330
3DBC
100
AcDbEntity
  8
GLEISE
100
AcDbBlockBegin
  2
30
 70
     0
 71
     0
 10
0.0
 20
0.0
 30
0.0
  3
30
  1

  0
ENDBLK
  5
63F2
330
3DBC
100
AcDbEntity
  8
GLEISE
100
AcDbBlockEnd
  0
BLOCK
  5
63F3
330
3DFA
100
AcDbEntity
  8
GLEISE
100
AcDbBlockBegin
  2
45
 70
     0
 71
     0
 10
0.0
 20
0.0
 30
0.0
  3
45
  1

  0
ENDBLK
  5
63F4
330
3DFA
100
AcDbEntity
  8
GLEISE
100
AcDbBlockEnd
  0
BLOCK
  5
63F5
330
3E4D
100
AcDbEntity
  8
GLEISE
100
AcDbBlockBegin
  2
3
 70
     0
 71
     0
 10
0.0
 20
0.0
 30
0.0
  3
3
  1

  0
ENDBLK
  5
63F6
330
3E4D
100
AcDbEntity
  8
GLEISE
100
AcDbBlockEnd
  0
BLOCK
  5
63F7
330
3E8B
100
AcDbEntity
  8
GLEISE
100
AcDbBlockBegin
  2
51
 70
     0
 71
     0
 10
0.0
 20
0.0
 30
0.0
  3
51
  1

  0
ENDBLK
  5
63F8
330
3E8B
100
AcDbEntity
  8
GLEISE
100
AcDbBlockEnd
  0
BLOCK
  5
63F9
330
3EDE
100
AcDbEntity
  8
GLEISE
100
AcDbBlockBegin
  2
52
 70
     0
 71
     0
 10
0.0
 20
0.0
 30
0.0
  3
52
  1

  0
ENDBLK
  5
63FA
330
3EDE
100
AcDbEntity
  8
GLEISE
100
AcDbBlockEnd
  0
BLOCK
  5
63FB
330
4175
100
AcDbEntity
  8
GLEISE
100
AcDbBlockBegin
  2
752
 70
     0
 71
     0
 10
0.0
 20
0.0
 30
0.0
  3
752
  1

  0
ENDBLK
  5
63FC
330
4175
100
AcDbEntity
  8
GLEISE
100
AcDbBlockEnd
  0
BLOCK
  5
63FD
330
417E
100
AcDbEntity
  8
GLEISE
100
AcDbBlockBegin
  2
753
 70
     0
 71
     0
 10
0.0
 20
0.0
 30
0.0
  3
753
  1

  0
ENDBLK
  5
63FE
330
417E
100
AcDbEntity
  8
GLEISE
100
AcDbBlockEnd
  0
BLOCK
  5
63FF
330
43CD
100
AcDbEntity
  8
GLEISE
100
AcDbBlockBegin
  2
758
 70
     0
 71
     0
 10
0.0
 20
0.0
 30
0.0
  3
758
  1

  0
ENDBLK
  5
6400
330
43CD
100
AcDbEntity
  8
GLEISE
100
AcDbBlockEnd
  0
BLOCK
  5
6401
330
43E0
100
AcDbEntity
  8
GLEISE
100
AcDbBlockBegin
  2
7
 70
     0
 71
     0
 10
0.0
 20
0.0
 30
0.0
  3
7
  1

  0
ENDBLK
  5
6402
330
43E0
100
AcDbEntity
  8
GLEISE
100
AcDbBlockEnd
  0
BLOCK
  5
6403
330
441E
100
AcDbEntity
  8
GLEISE
100
AcDbBlockBegin
  2
774
 70
     0
 71
     0
 10
0.0
 20
0.0
 30
0.0
  3
774
  1

  0
ENDBLK
  5
6404
330
441E
100
AcDbEntity
  8
GLEISE
100
AcDbBlockEnd
  0
BLOCK
  5
6405
330
442C
100
AcDbEntity
  8
GLEISE
100
AcDbBlockBegin
  2
5
 70
     0
 71
     0
 10
0.0
 20
0.0
 30
0.0
  3
5
  1

  0
ENDBLK
  5
6406
330
442C
100
AcDbEntity
  8
GLEISE
100
AcDbBlockEnd
  0
BLOCK
  5
6407
330
4448
100
AcDbEntity
  8
GLEISE
100
AcDbBlockBegin
  2
775
 70
     0
 71
     0
 10
0.0
 20
0.0
 30
0.0
  3
775
  1

  0
ENDBLK
  5
6408
330
4448
100
AcDbEntity
  8
GLEISE
100
AcDbBlockEnd
  0
BLOCK
  5
6409
330
4486
100
AcDbEntity
  8
GLEISE
100
AcDbBlockBegin
  2
777
 70
     0
 71
     0
 10
0.0
 20
0.0
 30
0.0
  3
777
  1

  0
ENDBLK
  5
640A
330
4486
100
AcDbEntity
  8
GLEISE
100
AcDbBlockEnd
  0
BLOCK
  5
640B
330
448F
100
AcDbEntity
  8
GLEISE
100
AcDbBlockBegin
  2
778
 70
     0
 71
     0
 10
0.0
 20
0.0
 30
0.0
  3
778
  1

  0
ENDBLK
  5
640C
330
448F
100
AcDbEntity
  8
GLEISE
100
AcDbBlockEnd
  0
BLOCK
  5
640D
330
4498
100
AcDbEntity
  8
GLEISE
100
AcDbBlockBegin
  2
780
 70
     0
 71
     0
 10
0.0
 20
0.0
 30
0.0
  3
780
  1

  0
ENDBLK
  5
640E
330
4498
100
AcDbEntity
  8
GLEISE
100
AcDbBlockEnd
  0
BLOCK
  5
640F
330
44A1
100
AcDbEntity
  8
GLEISE
100
AcDbBlockBegin
  2
783
 70
     0
 71
     0
 10
0.0
 20
0.0
 30
0.0
  3
783
  1

  0
ENDBLK
  5
6410
330
44A1
100
AcDbEntity
  8
GLEISE
100
AcDbBlockEnd
  0
BLOCK
  5
6411
330
44EA
100
AcDbEntity
  8
GLEISE
100
AcDbBlockBegin
  2
784
 70
     0
 71
     0
 10
0.0
 20
0.0
 30
0.0
  3
784
  1

  0
ENDBLK
  5
6412
330
44EA
100
AcDbEntity
  8
GLEISE
100
AcDbBlockEnd
  0
BLOCK
  5
6413
330
44F3
100
AcDbEntity
  8
GLEISE
100
AcDbBlockBegin
  2
787
 70
     0
 71
     0
 10
0.0
 20
0.0
 30
0.0
  3
787
  1

  0
ENDBLK
  5
6414
330
44F3
100
AcDbEntity
  8
GLEISE
100
AcDbBlockEnd
  0
BLOCK
  5
6415
330
45A2
100
AcDbEntity
  8
GLEISE
100
AcDbBlockBegin
  2
788
 70
     0
 71
     0
 10
0.0
 20
0.0
 30
0.0
  3
788
  1

  0
ENDBLK
  5
6416
330
45A2
100
AcDbEntity
  8
GLEISE
100
AcDbBlockEnd
  0
BLOCK
  5
6417
330
45B2
100
AcDbEntity
  8
GLEISE
100
AcDbBlockBegin
  2
794
 70
     0
 71
     0
 10
0.0
 20
0.0
 30
0.0
  3
794
  1

  0
ENDBLK
  5
6418
330
45B2
100
AcDbEntity
  8
GLEISE
100
AcDbBlockEnd
  0
BLOCK
  5
6419
330
4629
100
AcDbEntity
  8
GLEISE
100
AcDbBlockBegin
  2
795
 70
     0
 71
     0
 10
0.0
 20
0.0
 30
0.0
  3
795
  1

  0
ENDBLK
  5
641A
330
4629
100
AcDbEntity
  8
GLEISE
100
AcDbBlockEnd
  0
BLOCK
  5
641B
330
4632
100
AcDbEntity
  8
GLEISE
100
AcDbBlockBegin
  2
797
 70
     0
 71
     0
 10
0.0
 20
0.0
 30
0.0
  3
797
  1

  0
ENDBLK
  5
641C
330
4632
100
AcDbEntity
  8
GLEISE
100
AcDbBlockEnd
  0
BLOCK
  5
641D
330
463B
100
AcDbEntity
  8
GLEISE
100
AcDbBlockBegin
  2
799
 70
     0
 71
     0
 10
0.0
 20
0.0
 30
0.0
  3
799
  1

  0
ENDBLK
  5
641E
330
463B
100
AcDbEntity
  8
GLEISE
100
AcDbBlockEnd
  0
BLOCK
  5
641F
330
465B
100
AcDbEntity
  8
GLEISE
100
AcDbBlockBegin
  2
801
 70
     0
 71
     0
 10
0.0
 20
0.0
 30
0.0
  3
801
  1

  0
ENDBLK
  5
6420
330
465B
100
AcDbEntity
  8
GLEISE
100
AcDbBlockEnd
  0
BLOCK
  5
6421
330
46E0
100
AcDbEntity
  8
GLEISE
100
AcDbBlockBegin
  2
802
 70
     0
 71
     0
 10
0.0
 20
0.0
 30
0.0
  3
802
  1

  0
ENDBLK
  5
6422
330
46E0
100
AcDbEntity
  8
GLEISE
100
AcDbBlockEnd
  0
BLOCK
  5
6423
330
4793
100
AcDbEntity
  8
GLEISE
100
AcDbBlockBegin
  2
803
 70
     0
 71
     0
 10
0.0
 20
0.0
 30
0.0
  3
803
  1

  0
ENDBLK
  5
6424
330
4793
100
AcDbEntity
  8
GLEISE
100
AcDbBlockEnd
  0
BLOCK
  5
6425
330
479C
100
AcDbEntity
  8
GLEISE
100
AcDbBlockBegin
  2
804
 70
     0
 71
     0
 10
0.0
 20
0.0
 30
0.0
  3
804
  1

  0
ENDBLK
  5
6426
330
479C
100
AcDbEntity
  8
GLEISE
100
AcDbBlockEnd
  0
BLOCK
  5
6427
330
47C7
100
AcDbEntity
  8
GLEISE
100
AcDbBlockBegin
  2
EINFAHRT_RECHTS_PECO_64MM
 70
     0
 71
     0
 10
0.0
 20
0.0
 30
0.0
  3
EINFAHRT_RECHTS_PECO_64MM
  1

  0
ENDBLK
  5
6428
330
47C7
100
AcDbEntity
  8
GLEISE
100
AcDbBlockEnd
  0
BLOCK
  5
6429
330
5372
100
AcDbEntity
  8
GLEISE
100
AcDbBlockBegin
  2
9
 70
     0
 71
     0
 10
0.0
 20
0.0
 30
0.0
  3
9
  1

  0
ENDBLK
  5
642A
330
5372
100
AcDbEntity
  8
GLEISE
100
AcDbBlockEnd
  0
BLOCK
  5
642B
330
537B
100
AcDbEntity
  8
GLEISE
100
AcDbBlockBegin
  2
10
 70
     0
 71
     0
 10
0.0
 20
0.0
 30
0.0
  3
10
  1

  0
ENDBLK
  5
642C
330
537B
100
AcDbEntity
  8
GLEISE
100
AcDbBlockEnd
  0
BLOCK
  5
642D
330
538C
100
AcDbEntity
  8
GLEISE
100
AcDbBlockBegin
  2
23
 70
     0
 71
     0
 10
0.0
 20
0.0
 30
0.0
  3
23
  1

  0
ENDBLK
  5
642E
330
538C
100
AcDbEntity
  8
GLEISE
100
AcDbBlockEnd
  0
BLOCK
  5
642F
330
5395
100
AcDbEntity
  8
GLEISE
100
AcDbBlockBegin
  2
66
 70
     0
 71
     0
 10
0.0
 20
0.0
 30
0.0
  3
66
  1

  0
ENDBLK
  5
6430
330
5395
100
AcDbEntity
  8
GLEISE
100
AcDbBlockEnd
  0
BLOCK
  5
6431
330
539E
100
AcDbEntity
  8
GLEISE
100
AcDbBlockBegin
  2
67
 70
     0
 71
     0
 10
0.0
 20
0.0
 30
0.0
  3
67
  1

  0
ENDBLK
  5
6432
330
539E
100
AcDbEntity
  8
GLEISE
100
AcDbBlockEnd
  0
BLOCK
  5
6433
330
53A7
100
AcDbEntity
  8
GLEISE
100
AcDbBlockBegin
  2
68
 70
     0
 71
     0
 10
0.0
 20
0.0
 30
0.0
  3
68
  1

  0
ENDBLK
  5
6434
330
53A7
100
AcDbEntity
  8
GLEISE
100
AcDbBlockEnd
  0
BLOCK
  5
6435
330
53B0
100
AcDbEntity
  8
GLEISE
100
AcDbBlockBegin
  2
69
 70
     0
 71
     0
 10
0.0
 20
0.0
 30
0.0
  3
69
  1

  0
ENDBLK
  5
6436
330
53B0
100
AcDbEntity
  8
GLEISE
100
AcDbBlockEnd
  0
BLOCK
  5
6437
330
5475
100
AcDbEntity
  8
GLEISE
100
AcDbBlockBegin
  2
70
 70
     0
 71
     0
 10
0.0
 20
0.0
 30
0.0
  3
70
  1

  0
ENDBLK
  5
6438
330
5475
100
AcDbEntity
  8
GLEISE
100
AcDbBlockEnd
  0
BLOCK
  5
6439
330
547E
100
AcDbEntity
  8
GLEISE
100
AcDbBlockBegin
  2
73
 70
     0
 71
     0
 10
0.0
 20
0.0
 30
0.0
  3
73
  1

  0
ENDBLK
  5
643A
330
547E
100
AcDbEntity
  8
GLEISE
100
AcDbBlockEnd
  0
BLOCK
  5
643B
330
5487
100
AcDbEntity
  8
GLEISE
100
AcDbBlockBegin
  2
74
 70
     0
 71
     0
 10
0.0
 20
0.0
 30
0.0
  3
74
  1

  0
ENDBLK
  5
643C
330
5487
100
AcDbEntity
  8
GLEISE
100
AcDbBlockEnd
  0
BLOCK
  5
643D
330
5490
100
AcDbEntity
  8
GLEISE
100
AcDbBlockBegin
  2
75
 70
     0
 71
     0
 10
0.0
 20
0.0
 30
0.0
  3
75
  1

  0
ENDBLK
  5
643E
330
5490
100
AcDbEntity
  8
GLEISE
100
AcDbBlockEnd
  0
BLOCK
  5
643F
330
5499
100
AcDbEntity
  8
GLEISE
100
AcDbBlockBegin
  2
76
 70
     0
 71
     0
 10
0.0
 20
0.0
 30
0.0
  3
76
  1

  0
ENDBLK
  5
6440
330
5499
100
AcDbEntity
  8
GLEISE
100
AcDbBlockEnd
  0
BLOCK
  5
6441
330
54A2
100
AcDbEntity
  8
GLEISE
100
AcDbBlockBegin
  2
78
 70
     0
 71
     0
 10
0.0
 20
0.0
 30
0.0
  3
78
  1

  0
ENDBLK
  5
6442
330
54A2
100
AcDbEntity
  8
GLEISE
100
AcDbBlockEnd
  0
BLOCK
  5
6443
330
54AB
100
AcDbEntity
  8
GLEISE
100
AcDbBlockBegin
  2
81
 70
     0
 71
     0
 10
0.0
 20
0.0
 30
0.0
  3
81
  1

  0
ENDBLK
  5
6444
330
54AB
100
AcDbEntity
  8
GLEISE
100
AcDbBlockEnd
  0
BLOCK
  5
6445
330
54BC
100
AcDbEntity
  8
GLEISE
100
AcDbBlockBegin
  2
82
 70
     0
 71
     0
 10
0.0
 20
0.0
 30
0.0
  3
82
  1

  0
ENDBLK
  5
6446
330
54BC
100
AcDbEntity
  8
GLEISE
100
AcDbBlockEnd
  0
BLOCK
  5
6447
330
54C5
100
AcDbEntity
  8
GLEISE
100
AcDbBlockBegin
  2
83
 70
     0
 71
     0
 10
0.0
 20
0.0
 30
0.0
  3
83
  1

  0
ENDBLK
  5
6448
330
54C5
100
AcDbEntity
  8
GLEISE
100
AcDbBlockEnd
  0
BLOCK
  5
6449
330
5566
100
AcDbEntity
  8
GLEISE
100
AcDbBlockBegin
  2
84
 70
     0
 71
     0
 10
0.0
 20
0.0
 30
0.0
  3
84
  1

  0
ENDBLK
  5
644A
330
5566
100
AcDbEntity
  8
GLEISE
100
AcDbBlockEnd
  0
BLOCK
  5
644B
330
5574
100
AcDbEntity
  8
GLEISE
100
AcDbBlockBegin
  2
92
 70
     0
 71
     0
 10
0.0
 20
0.0
 30
0.0
  3
92
  1

  0
ENDBLK
  5
644C
330
5574
100
AcDbEntity
  8
GLEISE
100
AcDbBlockEnd
  0
BLOCK
  5
644D
330
5582
100
AcDbEntity
  8
GLEISE
100
AcDbBlockBegin
  2
99
 70
     0
 71
     0
 10
0.0
 20
0.0
 30
0.0
  3
99
  1

  0
ENDBLK
  5
644E
330
5582
100
AcDbEntity
  8
GLEISE
100
AcDbBlockEnd
  0
BLOCK
  5
644F
330
5590
100
AcDbEntity
  8
GLEISE
100
AcDbBlockBegin
  2
100
 70
     0
 71
     0
 10
0.0
 20
0.0
 30
0.0
  3
100
  1

  0
ENDBLK
  5
6450
330
5590
100
AcDbEntity
  8
GLEISE
100
AcDbBlockEnd
  0
BLOCK
  5
6451
330
559E
100
AcDbEntity
  8
GLEISE
100
AcDbBlockBegin
  2
101
 70
     0
 71
     0
 10
0.0
 20
0.0
 30
0.0
  3
101
  1

  0
ENDBLK
  5
6452
330
559E
100
AcDbEntity
  8
GLEISE
100
AcDbBlockEnd
  0
BLOCK
  5
6453
330
55AC
100
AcDbEntity
  8
GLEISE
100
AcDbBlockBegin
  2
102
 70
     0
 71
     0
 10
0.0
 20
0.0
 30
0.0
  3
102
  1

  0
ENDBLK
  5
6454
330
55AC
100
AcDbEntity
  8
GLEISE
100
AcDbBlockEnd
  0
BLOCK
  5
6455
330
55B5
100
AcDbEntity
  8
GLEISE
100
AcDbBlockBegin
  2
103
 70
     0
 71
     0
 10
0.0
 20
0.0
 30
0.0
  3
103
  1

  0
ENDBLK
  5
6456
330
55B5
100
AcDbEntity
  8
GLEISE
100
AcDbBlockEnd
  0
BLOCK
  5
6457
330
5656
100
AcDbEntity
  8
GLEISE
100
AcDbBlockBegin
  2
104
 70
     0
 71
     0
 10
0.0
 20
0.0
 30
0.0
  3
104
  1

  0
ENDBLK
  5
6458
330
5656
100
AcDbEntity
  8
GLEISE
100
AcDbBlockEnd
  0
BLOCK
  5
6459
330
56F7
100
AcDbEntity
  8
GLEISE
100
AcDbBlockBegin
  2
107
 70
     0
 71
     0
 10
0.0
 20
0.0
 30
0.0
  3
107
  1

  0
ENDBLK
  5
645A
330
56F7
100
AcDbEntity
  8
GLEISE
100
AcDbBlockEnd
  0
BLOCK
  5
645B
330
5822
100
AcDbEntity
  8
GLEISE
100
AcDbBlockBegin
  2
22
 70
     0
 71
     0
 10
0.0
 20
0.0
 30
0.0
  3
22
  1

  0
ENDBLK
  5
645C
330
5822
100
AcDbEntity
  8
GLEISE
100
AcDbBlockEnd
  0
BLOCK
  5
645D
330
5830
100
AcDbEntity
  8
GLEISE
100
AcDbBlockBegin
  2
176
 70
     0
 71
     0
 10
0.0
 20
0.0
 30
0.0
  3
176
  1

  0
ENDBLK
  5
645E
330
5830
100
AcDbEntity
  8
GLEISE
100
AcDbBlockEnd
  0
BLOCK
  5
645F
330
5839
100
AcDbEntity
  8
GLEISE
100
AcDbBlockBegin
  2
177
 70
     0
 71
     0
 10
0.0
 20
0.0
 30
0.0
  3
177
  1

  0
ENDBLK
  5
6460
330
5839
100
AcDbEntity
  8
GLEISE
100
AcDbBlockEnd
  0
BLOCK
  5
6461
330
5842
100
AcDbEntity
  8
GLEISE
100
AcDbBlockBegin
  2
204
 70
     0
 71
     0
 10
0.0
 20
0.0
 30
0.0
  3
204
  1

  0
ENDBLK
  5
6462
330
5842
100
AcDbEntity
  8
GLEISE
100
AcDbBlockEnd
  0
BLOCK
  5
6463
330
584B
100
AcDbEntity
  8
GLEISE
100
AcDbBlockBegin
  2
205
 70
     0
 71
     0
 10
0.0
 20
0.0
 30
0.0
  3
205
  1

  0
ENDBLK
  5
6464
330
584B
100
AcDbEntity
  8
GLEISE
100
AcDbBlockEnd
  0
BLOCK
  5
6465
330
5854
100
AcDbEntity
  8
GLEISE
100
AcDbBlockBegin
  2
253
 70
     0
 71
     0
 10
0.0
 20
0.0
 30
0.0
  3
253
  1

  0
ENDBLK
  5
6466
330
5854
100
AcDbEntity
  8
GLEISE
100
AcDbBlockEnd
  0
BLOCK
  5
6467
330
585D
100
AcDbEntity
  8
GLEISE
100
AcDbBlockBegin
  2
254
 70
     0
 71
     0
 10
0.0
 20
0.0
 30
0.0
  3
254
  1

  0
ENDBLK
  5
6468
330
585D
100
AcDbEntity
  8
GLEISE
100
AcDbBlockEnd
  0
BLOCK
  5
6469
330
5866
100
AcDbEntity
  8
GLEISE
100
AcDbBlockBegin
  2
255
 70
     0
 71
     0
 10
0.0
 20
0.0
 30
0.0
  3
255
  1

  0
ENDBLK
  5
646A
330
5866
100
AcDbEntity
  8
GLEISE
100
AcDbBlockEnd
  0
BLOCK
  5
646B
330
586F
100
AcDbEntity
  8
GLEISE
100
AcDbBlockBegin
  2
256
 70
     0
 71
     0
 10
0.0
 20
0.0
 30
0.0
  3
256
  1

  0
ENDBLK
  5
646C
330
586F
100
AcDbEntity
  8
GLEISE
100
AcDbBlockEnd
  0
BLOCK
  5
646D
330
5878
100
AcDbEntity
  8
GLEISE
100
AcDbBlockBegin
  2
257
 70
     0
 71
     0
 10
0.0
 20
0.0
 30
0.0
  3
257
  1

  0
ENDBLK
  5
646E
330
5878
100
AcDbEntity
  8
GLEISE
100
AcDbBlockEnd
  0
BLOCK
  5
646F
330
5881
100
AcDbEntity
  8
GLEISE
100
AcDbBlockBegin
  2
261
 70
     0
 71
     0
 10
0.0
 20
0.0
 30
0.0
  3
261
  1

  0
ENDBLK
  5
6470
330
5881
100
AcDbEntity
  8
GLEISE
100
AcDbBlockEnd
  0
BLOCK
  5
6471
330
58BF
100
AcDbEntity
  8
GLEISE
100
AcDbBlockBegin
  2
262
 70
     0
 71
     0
 10
0.0
 20
0.0
 30
0.0
  3
262
  1

  0
ENDBLK
  5
6472
330
58BF
100
AcDbEntity
  8
GLEISE
100
AcDbBlockEnd
  0
BLOCK
  5
6473
330
58FD
100
AcDbEntity
  8
GLEISE
100
AcDbBlockBegin
  2
263
 70
     0
 71
     0
 10
0.0
 20
0.0
 30
0.0
  3
263
  1

  0
ENDBLK
  5
6474
330
58FD
100
AcDbEntity
  8
GLEISE
100
AcDbBlockEnd
  0
BLOCK
  5
6475
330
593B
100
AcDbEntity
  8
GLEISE
100
AcDbBlockBegin
  2
264
 70
     0
 71
     0
 10
0.0
 20
0.0
 30
0.0
  3
264
  1

  0
ENDBLK
  5
6476
330
593B
100
AcDbEntity
  8
GLEISE
100
AcDbBlockEnd
  0
BLOCK
  5
6477
330
5944
100
AcDbEntity
  8
GLEISE
100
AcDbBlockBegin
  2
266
 70
     0
 71
     0
 10
0.0
 20
0.0
 30
0.0
  3
266
  1

  0
ENDBLK
  5
6478
330
5944
100
AcDbEntity
  8
GLEISE
100
AcDbBlockEnd
  0
BLOCK
  5
6479
330
594D
100
AcDbEntity
  8
GLEISE
100
AcDbBlockBegin
  2
267
 70
     0
 71
     0
 10
0.0
 20
0.0
 30
0.0
  3
267
  1

  0
ENDBLK
  5
647A
330
594D
100
AcDbEntity
  8
GLEISE
100
AcDbBlockEnd
  0
BLOCK
  5
647B
330
5A8E
100
AcDbEntity
  8
GLEISE
100
AcDbBlockBegin
  2
270
 70
     0
 71
     0
 10
0.0
 20
0.0
 30
0.0
  3
270
  1

  0
ENDBLK
  5
647C
330
5A8E
100
AcDbEntity
  8
GLEISE
100
AcDbBlockEnd
  0
BLOCK
  5
647D
330
5AE1
100
AcDbEntity
  8
GLEISE
100
AcDbBlockBegin
  2
272
 70
     0
 71
     0
 10
0.0
 20
0.0
 30
0.0
  3
272
  1

  0
ENDBLK
  5
647E
330
5AE1
100
AcDbEntity
  8
GLEISE
100
AcDbBlockEnd
  0
BLOCK
  5
647F
330
5B0D
100
AcDbEntity
  8
GLEISE
100
AcDbBlockBegin
  2
273
 70
     0
 71
     0
 10
0.0
 20
0.0
 30
0.0
  3
273
  1

  0
ENDBLK
  5
6480
330
5B0D
100
AcDbEntity
  8
GLEISE
100
AcDbBlockEnd
  0
BLOCK
  5
6481
330
5B16
100
AcDbEntity
  8
GLEISE
100
AcDbBlockBegin
  2
275
 70
     0
 71
     0
 10
0.0
 20
0.0
 30
0.0
  3
275
  1

  0
ENDBLK
  5
6482
330
5B16
100
AcDbEntity
  8
GLEISE
100
AcDbBlockEnd
  0
BLOCK
  5
6483
330
5B1F
100
AcDbEntity
  8
GLEISE
100
AcDbBlockBegin
  2
276
 70
     0
 71
     0
 10
0.0
 20
0.0
 30
0.0
  3
276
  1

  0
ENDBLK
  5
6484
330
5B1F
100
AcDbEntity
  8
GLEISE
100
AcDbBlockEnd
  0
BLOCK
  5
6485
330
5C26
100
AcDbEntity
  8
GLEISE
100
AcDbBlockBegin
  2
277
 70
     0
 71
     0
 10
0.0
 20
0.0
 30
0.0
  3
277
  1

  0
ENDBLK
  5
6486
330
5C26
100
AcDbEntity
  8
GLEISE
100
AcDbBlockEnd
  0
BLOCK
  5
6487
330
5C2F
100
AcDbEntity
  8
GLEISE
100
AcDbBlockBegin
  2
279
 70
     0
 71
     0
 10
0.0
 20
0.0
 30
0.0
  3
279
  1

  0
ENDBLK
  5
6488
330
5C2F
100
AcDbEntity
  8
GLEISE
100
AcDbBlockEnd
  0
BLOCK
  5
6489
330
5C38
100
AcDbEntity
  8
GLEISE
100
AcDbBlockBegin
  2
281
 70
     0
 71
     0
 10
0.0
 20
0.0
 30
0.0
  3
281
  1

  0
ENDBLK
  5
648A
330
5C38
100
AcDbEntity
  8
GLEISE
100
AcDbBlockEnd
  0
BLOCK
  5
648B
330
5C41
100
AcDbEntity
  8
GLEISE
100
AcDbBlockBegin
  2
282
 70
     0
 71
     0
 10
0.0
 20
0.0
 30
0.0
  3
282
  1

  0
ENDBLK
  5
648C
330
5C41
100
AcDbEntity
  8
GLEISE
100
AcDbBlockEnd
  0
BLOCK
  5
648D
330
5CEC
100
AcDbEntity
  8
GLEISE
100
AcDbBlockBegin
  2
283
 70
     0
 71
     0
 10
0.0
 20
0.0
 30
0.0
  3
283
  1

  0
ENDBLK
  5
648E
330
5CEC
100
AcDbEntity
  8
GLEISE
100
AcDbBlockEnd
  0
BLOCK
  5
648F
330
5D10
100
AcDbEntity
  8
GLEISE
100
AcDbBlockBegin
  2
287
 70
     0
 71
     0
 10
0.0
 20
0.0
 30
0.0
  3
287
  1

  0
ENDBLK
  5
6490
330
5D10
100
AcDbEntity
  8
GLEISE
100
AcDbBlockEnd
  0
BLOCK
  5
6491
330
5D34
100
AcDbEntity
  8
GLEISE
100
AcDbBlockBegin
  2
289
 70
     0
 71
     0
 10
0.0
 20
0.0
 30
0.0
  3
289
  1

  0
ENDBLK
  5
6492
330
5D34
100
AcDbEntity
  8
GLEISE
100
AcDbBlockEnd
  0
BLOCK
  5
6493
330
5D3D
100
AcDbEntity
  8
GLEISE
100
AcDbBlockBegin
  2
290
 70
     0
 71
     0
 10
0.0
 20
0.0
 30
0.0
  3
290
  1

  0
ENDBLK
  5
6494
330
5D3D
100
AcDbEntity
  8
GLEISE
100
AcDbBlockEnd
  0
BLOCK
  5
6495
330
5D46
100
AcDbEntity
  8
GLEISE
100
AcDbBlockBegin
  2
291
 70
     0
 71
     0
 10
0.0
 20
0.0
 30
0.0
  3
291
  1

  0
ENDBLK
  5
6496
330
5D46
100
AcDbEntity
  8
GLEISE
100
AcDbBlockEnd
  0
BLOCK
  5
6497
330
5D84
100
AcDbEntity
  8
GLEISE
100
AcDbBlockBegin
  2
292
 70
     0
 71
     0
 10
0.0
 20
0.0
 30
0.0
  3
292
  1

  0
ENDBLK
  5
6498
330
5D84
100
AcDbEntity
  8
GLEISE
100
AcDbBlockEnd
  0
BLOCK
  5
6499
330
5DC2
100
AcDbEntity
  8
GLEISE
100
AcDbBlockBegin
  2
293
 70
     0
 71
     0
 10
0.0
 20
0.0
 30
0.0
  3
293
  1

  0
ENDBLK
  5
649A
330
5DC2
100
AcDbEntity
  8
GLEISE
100
AcDbBlockEnd
  0
BLOCK
  5
649B
330
5DCB
100
AcDbEntity
  8
GLEISE
100
AcDbBlockBegin
  2
294
 70
     0
 71
     0
 10
0.0
 20
0.0
 30
0.0
  3
294
  1

  0
ENDBLK
  5
649C
330
5DCB
100
AcDbEntity
  8
GLEISE
100
AcDbBlockEnd
  0
BLOCK
  5
649D
330
5DD4
100
AcDbEntity
  8
GLEISE
100
AcDbBlockBegin
  2
295
 70
     0
 71
     0
 10
0.0
 20
0.0
 30
0.0
  3
295
  1

  0
ENDBLK
  5
649E
330
5DD4
100
AcDbEntity
  8
GLEISE
100
AcDbBlockEnd
  0
BLOCK
  5
649F
330
5EA7
100
AcDbEntity
  8
GLEISE
100
AcDbBlockBegin
  2
296
 70
     0
 71
     0
 10
0.0
 20
0.0
 30
0.0
  3
296
  1

  0
ENDBLK
  5
64A0
330
5EA7
100
AcDbEntity
  8
GLEISE
100
AcDbBlockEnd
  0
BLOCK
  5
64A1
330
5EB0
100
AcDbEntity
  8
GLEISE
100
AcDbBlockBegin
  2
297
 70
     0
 71
     0
 10
0.0
 20
0.0
 30
0.0
  3
297
  1

  0
ENDBLK
  5
64A2
330
5EB0
100
AcDbEntity
  8
GLEISE
100
AcDbBlockEnd
  0
BLOCK
  5
64A3
330
5EB9
100
AcDbEntity
  8
GLEISE
100
AcDbBlockBegin
  2
298
 70
     0
 71
     0
 10
0.0
 20
0.0
 30
0.0
  3
298
  1

  0
ENDBLK
  5
64A4
330
5EB9
100
AcDbEntity
  8
GLEISE
100
AcDbBlockEnd
  0
BLOCK
  5
64A5
330
5EC2
100
AcDbEntity
  8
GLEISE
100
AcDbBlockBegin
  2
299
 70
     0
 71
     0
 10
0.0
 20
0.0
 30
0.0
  3
299
  1

  0
ENDBLK
  5
64A6
330
5EC2
100
AcDbEntity
  8
GLEISE
100
AcDbBlockEnd
  0
BLOCK
  5
64A7
330
5F09
100
AcDbEntity
  8
GLEISE
100
AcDbBlockBegin
  2
ELISBURG-BW_V02
 70
     0
 71
     0
 10
0.0
 20
0.0
 30
0.0
  3
ELISBURG-BW_V02
  1

  0
ENDBLK
  5
64A8
330
5F09
100
AcDbEntity
  8
GLEISE
100
AcDbBlockEnd
  0
ENDSEC
  0
SECTION
  2
ENTITIES
  0
LINE
  5
3A
330
1F
100
AcDbEntity
  8
0
100
AcDbLine
 10
382.8400000000002
 20
-2181.34
 30
0.0
 11
382.8400000000002
 21
-1432.09
 31
0.0
  0
LINE
  5
82
330
1F
100
AcDbEntity
  8
0
100
AcDbLine
 10
382.8400000000002
 20
-3133.490000001732
 30
0.0
 11
-299.9999999999999
 21
-3133.490000001732
 31
0.0
  0
LINE
  5
84
330
1F
100
AcDbEntity
  8
0
100
AcDbLine
 10
-299.9999999999998
 20
-1370.06
 30
0.0
 11
10.40500000000025
 21
-1059.655
 31
0.0
  0
LINE
  5
188
330
1F
100
AcDbEntity
  8
0
100
AcDbLine
 10
-299.9999999999999
 20
-2181.34
 30
0.0
 11
-299.9999999999998
 21
-1370.06
 31
0.0
  0
LINE
  5
3DB
330
1F
100
AcDbEntity
  8
0
 62
     2
100
AcDbLine
 10
382.84
 20
-5037.790000001732
 30
0.0
 11
382.84
 21
-5533.290000001733
 31
0.0
  0
LWPOLYLINE
  5
3655
330
1F
100
AcDbEntity
  8
GLEISE
  6
BYBLOCK
100
AcDbPolyline
 90
        2
 70
     0
 43
9.0
 10
359.1520866640567
 20
-5879.446294071768
 10
182.3551191640563
 20
-5649.040000071767
  0
LWPOLYLINE
  5
3656
330
1F
100
AcDbEntity
  8
GLEISE
  6
BYBLOCK
100
AcDbPolyline
 90
        2
 70
     0
 43
9.0
 10
341.4744171640559
 20
-5897.123963571767
 10
160.7044841640563
 20
-5661.540000071767
  0
LWPOLYLINE
  5
3657
330
1F
100
AcDbEntity
  8
GLEISE
  6
BYBLOCK
 62
     2
100
AcDbPolyline
 90
        2
 70
     0
 43
9.0
 10
256.5436481640563
 20
-5440.427664071767
 10
350.0861571640562
 20
-5697.433595071769
  0
LWPOLYLINE
  5
3658
330
1F
100
AcDbEntity
  8
GLEISE
  6
BYBLOCK
 62
     2
100
AcDbPolyline
 90
        2
 70
     0
 43
9.0
 10
243.6716431640562
 20
-5444.179511071767
 10
302.8678771640562
 20
-5711.196469071769
  0
LWPOLYLINE
  5
3659
330
1F
100
AcDbEntity
  8
GLEISE
  6
BYBLOCK
 62
     2
100
AcDbPolyline
 90
        2
 70
     0
 43
9.0
 10
280.2781681640563
 20
-5428.072255071767
 10
494.5089671640562
 20
-5734.025544071767
  0
LWPOLYLINE
  5
365A
330
1F
100
AcDbEntity
  8
GLEISE
  6
BYBLOCK
 62
     2
100
AcDbPolyline
 90
        2
 70
     0
 43
9.0
 10
290.7345791640564
 20
-5419.680097071769
 10
543.0675221640558
 20
-5695.053182071768
  0
LWPOLYLINE
  5
365B
330
1F
100
AcDbEntity
  8
GLEISE
  6
BYBLOCK
 62
     2
100
AcDbPolyline
 90
        2
 70
     0
 43
9.0
 10
586.1237381640558
 20
-5650.076072071766
 10
300.0061381640562
 20
-5409.994900071768
  0
LWPOLYLINE
  5
365C
330
1F
100
AcDbEntity
  8
GLEISE
  6
BYBLOCK
 62
     2
100
AcDbPolyline
 90
        2
 70
     0
 43
9.0
 10
622.9409111640562
 20
-5599.863783071767
 10
307.9342061640564
 20
-5399.182380071767
  0
LWPOLYLINE
  5
365D
330
1F
100
AcDbEntity
  8
GLEISE
  6
BYBLOCK
 62
     2
100
AcDbPolyline
 90
        2
 70
     0
 43
9.0
 10
652.8890891640558
 20
-5545.275462071768
 10
314.3831311640561
 20
-5387.427542071768
  0
LWPOLYLINE
  5
365E
330
1F
100
AcDbEntity
  8
GLEISE
  6
BYBLOCK
 62
     2
100
AcDbPolyline
 90
        2
 70
     0
 43
9.0
 10
675.4558511640562
 20
-5487.245131071768
 10
319.2425701640559
 20
-5374.931514071766
  0
CIRCLE
  5
365F
330
1F
100
AcDbEntity
  8
GLEISE
  6
BYBLOCK
100
AcDbCircle
 10
221.4865831640564
 20
-5344.109170071768
 30
0.0
 40
102.5000002748293
  0
LWPOLYLINE
  5
3660
330
1F
100
AcDbEntity
  8
GLEISE
  6
BYBLOCK
100
AcDbPolyline
 90
        2
 70
     0
 43
9.0
 10
152.2385871640563
 20
-5268.538243071767
 10
290.7345791640564
 20
-5419.680097071769
  0
LWPOLYLINE
  5
3661
330
1F
100
AcDbEntity
  8
GLEISE
  6
BYBLOCK
100
AcDbPolyline
 90
        5
 70
     0
 43
9.0
 10
36.78191516405605
 20
-4031.112625071768
 10
36.78191516405605
 20
-4909.537136071767
 10
41.89181103282954
 20
-5022.356211417174
 10
71.01023302701833
 20
-5125.941417527651
 10
162.6949981640564
 20
-5260.146085071767
  0
LWPOLYLINE
  5
3663
330
1F
100
AcDbEntity
  8
GLEISE
  6
BYBLOCK
 62
     2
100
AcDbPolyline
 90
        5
 70
     0
 43
9.0
 10
98.65625916405588
 20
-5000.861619071767
 10
98.65625916405588
 20
-4500.861619071767
 10
71.08372516405598
 20
-4344.490009071767
 10
50.78191516405605
 20
-4268.722625071767
 10
36.78191516405605
 20
-4106.112625071768
  0
LWPOLYLINE
  5
3664
330
1F
100
AcDbEntity
  8
GLEISE
  6
BYBLOCK
 62
     2
100
AcDbPolyline
 90
        6
 70
     0
 43
9.0
 10
199.3015231640566
 20
-5244.038829071767
 10
161.6562591640559
 20
-5074.861619071768
 10
143.6562591640559
 20
-4900.861619071767
 10
143.6562591640559
 20
-4750.861619071767
 10
112.3370021640558
 20
-4498.449334571767
 10
71.08372466405581
 20
-4344.490009571767
  0
LWPOLYLINE
  5
3665
330
1F
100
AcDbEntity
  8
GLEISE
  6
BYBLOCK
 62
     2
100
AcDbPolyline
 90
        3
 70
     0
 43
9.0
 10
212.5531191640566
 20
-5241.999213071767
 10
207.6514132602833
 20
-5087.813507071767
 10
220.7372521640564
 20
-4788.099041071768
  0
LWPOLYLINE
  5
3666
330
1F
100
AcDbEntity
  8
GLEISE
  6
BYBLOCK
 62
     2
100
AcDbPolyline
 90
        3
 70
     0
 43
9.0
 10
239.2855211640563
 20
-5243.166375071767
 10
257.606698760289
 20
-5089.994602071767
 10
270.6925381640558
 20
-4790.280136071767
  0
LINE
  5
3675
330
1F
100
AcDbEntity
  8
0
100
AcDbLine
 10
208.8918956619155
 20
-6029.706485073908
 30
0.0
 11
491.7346081365346
 21
-5746.863772599289
 31
0.0
  0
LINE
  5
3679
330
1F
100
AcDbEntity
  8
0
100
AcDbLine
 10
208.8918956619155
 20
-6029.706485073908
 30
0.0
 11
-1.675279280290965
 21
-5755.290000001733
 31
0.0
  0
LINE
  5
367A
330
1F
100
AcDbEntity
  8
0
100
AcDbLine
 10
-1.675279280290965
 20
-5755.290000001733
 30
0.0
 11
344.7348822334845
 21
-5555.290000001733
 31
0.0
  0
LINE
  5
3681
330
1F
100
AcDbEntity
  8
0
100
AcDbLine
 10
-1.675279280290965
 20
-5755.290000001733
 30
0.0
 11
-300.0000000000001
 21
-5238.576426561402
 31
0.0
  0
LINE
  5
3682
330
1F
100
AcDbEntity
  8
0
100
AcDbLine
 10
-300.0000000000001
 20
-5238.576426561402
 30
0.0
 11
-300.0
 21
-5037.790000001732
 31
0.0
  0
LINE
  5
3683
330
1F
100
AcDbEntity
  8
0
100
AcDbLine
 10
-300.0
 20
-5037.790000001732
 30
0.0
 11
382.84
 21
-5037.790000001732
 31
0.0
  0
LINE
  5
3684
330
1F
100
AcDbEntity
  8
0
100
AcDbLine
 10
382.84
 20
-5037.790000001732
 30
0.0
 11
382.84
 21
-5533.290000001733
 31
0.0
  0
LINE
  5
3685
330
1F
100
AcDbEntity
  8
0
100
AcDbLine
 10
382.84
 20
-5533.290000001733
 30
0.0
 11
344.7348822334845
 21
-5555.290000001733
 31
0.0
  0
LINE
  5
3686
330
1F
100
AcDbEntity
  8
0
100
AcDbLine
 10
-300.0
 20
-5037.790000001732
 30
0.0
 11
-300.0624999999999
 21
-4085.640000001732
 31
0.0
  0
LINE
  5
3687
330
1F
100
AcDbEntity
  8
0
100
AcDbLine
 10
-300.0624999999999
 20
-4085.640000001732
 30
0.0
 11
382.8400000000001
 21
-4085.640000001732
 31
0.0
  0
LINE
  5
3688
330
1F
100
AcDbEntity
  8
0
100
AcDbLine
 10
382.84
 20
-5037.790000001732
 30
0.0
 11
382.8400000000001
 21
-4085.640000001732
 31
0.0
  0
LINE
  5
3689
330
1F
100
AcDbEntity
  8
0
100
AcDbLine
 10
-300.0624999999999
 20
-4085.640000001732
 30
0.0
 11
-299.9999999999999
 21
-3133.490000001732
 31
0.0
  0
LINE
  5
368A
330
1F
100
AcDbEntity
  8
0
100
AcDbLine
 10
382.8400000000001
 20
-4085.640000001732
 30
0.0
 11
382.8400000000002
 21
-3133.490000001732
 31
0.0
  0
LINE
  5
368C
330
1F
100
AcDbEntity
  8
0
100
AcDbLine
 10
382.8400000000002
 20
-1432.09
 30
0.0
 11
10.40500000000025
 21
-1059.655
 31
0.0
  0
LINE
  5
368D
330
1F
100
AcDbEntity
  8
0
100
AcDbLine
 10
10.40500000000025
 20
-1059.655
 30
0.0
 11
320.8100000000003
 21
-749.2500000000005
 31
0.0
  0
LINE
  5
368E
330
1F
100
AcDbEntity
  8
0
100
AcDbLine
 10
320.8100000000003
 20
-749.2500000000005
 30
0.0
 11
1132.092129635857
 21
-749.2661761903191
 31
0.0
  0
LINE
  5
368F
330
1F
100
AcDbEntity
  8
0
100
AcDbLine
 10
849.2472875253811
 20
-1432.092712474619
 30
0.0
 11
1132.09
 21
-1149.25
 31
0.0
  0
LINE
  5
3690
330
1F
100
AcDbEntity
  8
0
100
AcDbLine
 10
382.8400000000002
 20
-1432.09
 30
0.0
 11
849.2472875253811
 21
-1432.092712474619
 31
0.0
  0
LINE
  5
3691
330
1F
100
AcDbEntity
  8
0
100
AcDbLine
 10
382.84
 20
-5037.790000001732
 30
0.0
 11
382.8400000000001
 21
-4537.790000001732
 31
0.0
  0
LINE
  5
3692
330
1F
100
AcDbEntity
  8
0
100
AcDbLine
 10
382.84
 20
-5037.790000001732
 30
0.0
 11
882.84
 21
-5037.790000001732
 31
0.0
  0
LINE
  5
3693
330
1F
100
AcDbEntity
  8
0
100
AcDbLine
 10
491.7346081365346
 20
-5746.863772599289
 30
0.0
 11
344.7348822334845
 21
-5555.290000001733
 31
0.0
  0
LINE
  5
3694
330
1F
100
AcDbEntity
  8
0
100
AcDbLine
 10
491.7346081365346
 20
-5746.863772599289
 30
0.0
 11
882.8399999999999
 21
-5355.758380735822
 31
0.0
  0
LINE
  5
3695
330
1F
100
AcDbEntity
  8
0
100
AcDbLine
 10
882.84
 20
-5037.790000001732
 30
0.0
 11
882.8399999999999
 21
-5355.758380735822
 31
0.0
  0
LINE
  5
3696
330
1F
100
AcDbEntity
  8
0
100
AcDbLine
 10
382.84
 20
-5533.290000001733
 30
0.0
 11
382.84
 21
-5605.442138630246
 31
0.0
  0
LINE
  5
38DC
330
1F
100
AcDbEntity
  8
0
100
AcDbLine
 10
1132.092129635857
 20
-749.2661761903191
 30
0.0
 11
1132.09
 21
-1149.25
 31
0.0
  0
LINE
  5
38DD
330
1F
100
AcDbEntity
  8
0
100
AcDbLine
 10
1132.09
 20
-749.2500000000008
 30
0.0
 11
1132.09
 21
-1149.250000000001
 31
0.0
  0
LINE
  5
38DE
330
1F
100
AcDbEntity
  8
0
100
AcDbLine
 10
1132.09
 20
-1149.250000000001
 30
0.0
 11
1371.497616719832
 21
-1180.768610682612
 31
0.0
  0
LINE
  5
38DF
330
1F
100
AcDbEntity
  8
0
100
AcDbLine
 10
1371.497616719832
 20
-1180.768610682612
 30
0.0
 11
2047.64569512218
 21
-1361.941942254377
 31
0.0
  0
LINE
  5
38E0
330
1F
100
AcDbEntity
  8
0
100
AcDbLine
 10
2047.64569512218
 20
-1361.941942254377
 30
0.0
 11
2733.51616464386
 21
-1361.941942254377
 31
0.0
  0
LINE
  5
38E1
330
1F
100
AcDbEntity
  8
0
100
AcDbLine
 10
2733.51616464386
 20
-1361.941942254377
 30
0.0
 11
3409.664243046208
 21
-1180.768610682612
 31
0.0
  0
LINE
  5
38E2
330
1F
100
AcDbEntity
  8
0
100
AcDbLine
 10
3409.664243046208
 20
-1180.768610682612
 30
0.0
 11
3888.479476485871
 21
-1180.768610682612
 31
0.0
  0
LINE
  5
38E3
330
1F
100
AcDbEntity
  8
0
100
AcDbLine
 10
3888.479476485871
 20
-1180.768610682612
 30
0.0
 11
4303.145632363596
 21
-1420.176227402444
 31
0.0
  0
LINE
  5
38E4
330
1F
100
AcDbEntity
  8
0
100
AcDbLine
 10
4303.145632363596
 20
-1420.176227402444
 30
0.0
 11
4542.553249083427
 21
-1834.842383280169
 31
0.0
  0
LINE
  5
38E5
330
1F
100
AcDbEntity
  8
0
100
AcDbLine
 10
4542.553249083427
 20
-1834.842383280169
 30
0.0
 11
4542.553249083427
 21
-2313.657616719832
 31
0.0
  0
LINE
  5
38E6
330
1F
100
AcDbEntity
  8
0
100
AcDbLine
 10
4542.553249083427
 20
-2313.657616719832
 30
0.0
 11
4495.473117263864
 21
-2656.075213390467
 31
0.0
  0
LINE
  5
38E7
330
1F
100
AcDbEntity
  8
0
100
AcDbLine
 10
1132.09
 20
-749.2500000000008
 30
0.0
 11
1475.025234760841
 21
-794.3982801669845
 31
0.0
  0
LINE
  5
38E8
330
1F
100
AcDbEntity
  8
0
100
AcDbLine
 10
1475.025234760841
 20
-794.3982801669845
 30
0.0
 11
2151.173313163188
 21
-975.571611738749
 31
0.0
  0
LINE
  5
38E9
330
1F
100
AcDbEntity
  8
0
100
AcDbLine
 10
2151.173313163188
 20
-975.571611738749
 30
0.0
 11
2629.988546602852
 21
-975.571611738749
 31
0.0
  0
LINE
  5
38EA
330
1F
100
AcDbEntity
  8
0
100
AcDbLine
 10
2629.988546602852
 20
-975.571611738749
 30
0.0
 11
3306.1366250052
 21
-794.3982801669845
 31
0.0
  0
LINE
  5
38EB
330
1F
100
AcDbEntity
  8
0
100
AcDbLine
 10
3306.1366250052
 20
-794.3982801669845
 30
0.0
 11
3992.00709452688
 21
-794.3982801669846
 31
0.0
  0
LINE
  5
38EC
330
1F
100
AcDbEntity
  8
0
100
AcDbLine
 10
3992.00709452688
 20
-794.3982801669846
 30
0.0
 11
4585.988344838216
 21
-1137.333514927826
 31
0.0
  0
LINE
  5
38ED
330
1F
100
AcDbEntity
  8
0
100
AcDbLine
 10
4585.988344838216
 20
-1137.333514927826
 30
0.0
 11
4928.923579599054
 21
-1731.314765239161
 31
0.0
  0
LINE
  5
38EE
330
1F
100
AcDbEntity
  8
0
100
AcDbLine
 10
4928.923579599054
 20
-1731.314765239161
 30
0.0
 11
4926.991727946475
 21
-2416.667596670636
 31
0.0
  0
LINE
  5
38EF
330
1F
100
AcDbEntity
  8
0
100
AcDbLine
 10
4926.991727946475
 20
-2416.667596670636
 30
0.0
 11
4895.473117263864
 21
-2656.075213390467
 31
0.0
  0
LINE
  5
38F0
330
1F
100
AcDbEntity
  8
0
100
AcDbLine
 10
1371.497616719832
 20
-1180.768610682612
 30
0.0
 11
1475.025234760841
 21
-794.3982801669845
 31
0.0
  0
LINE
  5
38F1
330
1F
100
AcDbEntity
  8
0
100
AcDbLine
 10
2151.173313163188
 20
-975.571611738749
 30
0.0
 11
2047.64569512218
 21
-1361.941942254377
 31
0.0
  0
LINE
  5
38F2
330
1F
100
AcDbEntity
  8
0
100
AcDbLine
 10
2733.51616464386
 20
-1361.941942254377
 30
0.0
 11
2629.988546602852
 21
-975.571611738749
 31
0.0
  0
LINE
  5
38F3
330
1F
100
AcDbEntity
  8
0
100
AcDbLine
 10
3306.1366250052
 20
-794.3982801669845
 30
0.0
 11
3409.664243046208
 21
-1180.768610682612
 31
0.0
  0
LINE
  5
38F4
330
1F
100
AcDbEntity
  8
0
100
AcDbLine
 10
3888.479476485871
 20
-1180.768610682612
 30
0.0
 11
3992.00709452688
 21
-794.3982801669846
 31
0.0
  0
LINE
  5
38F5
330
1F
100
AcDbEntity
  8
0
100
AcDbLine
 10
4303.145632363596
 20
-1420.176227402444
 30
0.0
 11
4585.988344838216
 21
-1137.333514927826
 31
0.0
  0
LINE
  5
38F6
330
1F
100
AcDbEntity
  8
0
100
AcDbLine
 10
4542.553249083427
 20
-1834.842383280169
 30
0.0
 11
4928.923579599054
 21
-1731.314765239161
 31
0.0
  0
LINE
  5
38F7
330
1F
100
AcDbEntity
  8
0
100
AcDbLine
 10
4542.553249083427
 20
-2313.657616719832
 30
0.0
 11
4926.991727946475
 21
-2416.667596670636
 31
0.0
  0
LINE
  5
38F8
330
1F
100
AcDbEntity
  8
0
100
AcDbLine
 10
4495.473117263864
 20
-2656.075213390467
 30
0.0
 11
4895.473117263864
 21
-2656.075213390467
 31
0.0
  0
LWPOLYLINE
  5
3939
330
1F
100
AcDbEntity
  8
GLEISE
100
AcDbPolyline
 90
       17
 70
     0
 43
9.0
 10
1132.09
 20
-936.7500000000001
 10
1280.563543650309
 20
-946.4814701872909
 10
1426.496663804118
 20
-975.5093725961849
 10
2102.644742206466
 20
-1156.68270416795
 10
2390.58092988302
 20
-1194.590222421361
 10
2678.517117559575
 20
-1156.682704167949
 10
3354.665195961922
 20
-975.5093725961845
 10
3649.07185976604
 20
-938.7499999999999
 10
3942.960885479952
 20
-977.441224248763
 10
4216.82185976604
 20
-1090.87815400277
 10
4451.991609803364
 20
-1271.330249962676
 10
4632.44370576327
 20
-1506.500000000001
 10
4745.880635517276
 20
-1780.360974286088
 10
4784.571859766039
 20
-2074.250000000001
 10
4745.880635517276
 20
-2368.139025713913
 10
4717.4907089855
 20
-2510.86482454566
 10
4707.973117263864
 20
-2656.075213390468
  0
LWPOLYLINE
  5
397A
330
1F
100
AcDbEntity
  8
GLEISE
100
AcDbPolyline
 90
       17
 70
     0
 43
9.0
 10
4682.973117263863
 20
-2656.075213390467
 10
4692.704587451154
 20
-2507.601669740159
 10
4721.732489860049
 20
-2361.668549586349
 10
4761.571859766039
 20
-2074.250000000001
 10
4723.664341512627
 20
-1786.313812323446
 10
4612.525121476228
 20
-1518.000000000001
 10
4435.728153836073
 20
-1287.593705929967
 10
4205.32185976604
 20
-1110.796738289812
 10
3937.008047442594
 20
-999.6575182534116
 10
3649.07185976604
 20
-961.7500000000001
 10
3361.135672089485
 20
-999.6575182534119
 10
2684.469955596933
 20
-1178.898998172598
 10
2390.58092988302
 20
-1217.590222421361
 10
2096.174266078903
 20
-1180.830849825177
 10
1420.026187676555
 20
-999.6575182534119
 10
1277.300388844808
 20
-971.2675917216366
 10
1132.09
 20
-961.7500000000005
  0
INSERT
  5
47C8
330
1F
100
AcDbEntity
  8
GLEISE
100
AcDbBlockReference
  2
EINFAHRT_RECHTS_PECO_64MM
 10
-199.2184942373096
 20
-908.3072192373097
 30
0.0
  0
INSERT
  5
5F0A
330
1F
100
AcDbEntity
  8
GLEISE
100
AcDbBlockReference
  2
ELISBURG-BW_V02
 10
-215.1894048359427
 20
-5025.962623070035
 30
0.0
 50
90.0
  0
LWPOLYLINE
  5
5F3F
330
1F
100
AcDbEntity
  8
GLEISE
100
AcDbPolyline
 90
       12
 70
     0
 10
1112.061730401367
 20
-936.7500000000001
 40
9.0
 41
9.0
 10
627.6827961640574
 20
-936.7500000000001
 40
9.0
 41
9.0
 10
386.4027801640573
 20
-980.2853992373098
 40
9.0
 41
9.0
 10
248.3666246640573
 20
-1059.98061023731
 40
9.0
 41
9.0
 10
126.2664776640573
 20
-1162.43479823731
 40
9.0
 41
9.0
 10
23.81228866405733
 20
-1284.53494573731
 40
9.0
 41
9.0
 10
-20.71740283594266
 20
-1354.43256023731
 40
9.0
 41
9.0
 10
-89.48899483594266
 20
-1502.44769523731
 40
9.0
 41
9.0
 10
-117.5346463359427
 20
-1579.50249123731
 40
9.0
 41
9.0
 10
-145.1071798359427
 20
-1735.87410023731
 40
9.0
 41
9.0
 10
-145.2467638359427
 20
-1809.30721923731
 40
9.0
 41
9.0
 10
-145.2467638359427
 20
-2181.34
 40
0.0
 41
0.0
  0
LWPOLYLINE
  5
5F74
330
1F
100
AcDbEntity
  8
GLEISE
100
AcDbPolyline
 90
       13
 70
     0
 10
1112.061730401367
 20
-961.7500000000005
 40
9.0
 41
9.0
 10
727.6827961640574
 20
-961.7730092373097
 40
9.0
 41
9.0
 10
627.6827961640574
 20
-961.7730092373097
 40
9.0
 41
9.0
 10
395.8691641640573
 20
-1006.29407573731
 40
9.0
 41
9.0
 10
147.4689451640574
 20
-1180.22578223731
 40
9.0
 41
9.0
 10
129.2082289013672
 20
-1198.4864985
 40
9.0
 41
9.0
 10
56.39424566405734
 20
-1310.29393323731
 40
9.0
 41
9.0
 10
1.879510664057335
 20
-1460.07193673731
 40
9.0
 41
9.0
 10
-17.45277183594266
 20
-1536.19298023731
 40
9.0
 41
9.0
 10
-41.01217633594266
 20
-1693.83263623731
 40
9.0
 41
9.0
 10
-48.24676383594266
 20
-1809.30721923731
 40
9.0
 41
9.0
 10
-48.24676383594266
 20
-2109.30721923731
 40
9.0
 41
9.0
 10
-48.24676383594266
 20
-2181.34
 40
0.0
 41
0.0
  0
LWPOLYLINE
  5
5FAA
330
1F
100
AcDbEntity
  8
GLEISE
100
AcDbPolyline
 90
        7
 70
     0
 43
9.0
 10
1.879510664057335
 20
-1460.07193673731
 10
68.98448366405734
 20
-1316.16485773731
 10
157.1667011640574
 20
-1219.93085373731
 10
287.7316911640573
 20
-1128.50826373731
 10
432.4402646640573
 20
-1068.56800973731
 10
590.6199371640576
 20
-1054.72908173731
 10
1080.820610289836
 20
-1057.533918993927
  0
LWPOLYLINE
  5
5FB7
330
1F
100
AcDbEntity
  8
GLEISE
100
AcDbPolyline
 90
        4
 70
     0
 43
9.0
 10
432.4402646640573
 20
-1068.56800973731
 10
589.4091881640575
 20
-1040.89015373731
 10
711.7077749532011
 20
-1027.237027831458
 10
1082.014207845608
 20
-1028.47354997549
  0
LWPOLYLINE
  5
5FCC
330
1F
100
AcDbEntity
  8
GLEISE
100
AcDbPolyline
 90
        6
 70
     0
 43
9.0
 10
627.6827961640574
 20
-961.7730092373097
 10
549.2426271640572
 20
-965.1977802373096
 10
392.2737046640573
 20
-992.8756367373097
 10
248.3666246640573
 20
-1059.98061023731
 10
136.0894566640573
 20
-1172.25777873731
 10
56.39424566405734
 20
-1310.29393323731
  0
LWPOLYLINE
  5
5FE5
330
1F
100
AcDbEntity
  8
GLEISE
100
AcDbPolyline
 90
        6
 70
     0
 10
126.2664776640573
 20
-1162.43479823731
 40
9.0
 41
9.0
 10
35.19177766405734
 20
-1292.50294923731
 40
9.0
 41
9.0
 10
-68.80822283594267
 20
-1592.50295023731
 40
9.0
 41
9.0
 10
-81.24676383594266
 20
-1809.30721923731
 40
9.0
 41
9.0
 10
-81.24676383594266
 20
-2109.30721923731
 40
9.0
 41
9.0
 10
-81.24676383594266
 20
-2181.34
 40
0.0
 41
0.0
  0
LWPOLYLINE
  5
5FFE
330
1F
100
AcDbEntity
  8
GLEISE
100
AcDbPolyline
 90
        6
 70
     0
 10
-17.45277183594266
 20
-1536.19298023731
 40
9.0
 41
9.0
 10
-27.14629683594266
 20
-1694.68070973731
 40
9.0
 41
9.0
 10
-11.78486383594267
 20
-1784.07898223731
 40
9.0
 41
9.0
 10
25.51309375229263
 20
-1933.270812590251
 40
9.0
 41
9.0
 10
47.75323616405734
 20
-2109.30721923731
 40
9.0
 41
9.0
 10
47.75323616405734
 20
-2181.34
 40
0.0
 41
0.0
  0
LWPOLYLINE
  5
6028
330
1F
100
AcDbEntity
  8
GLEISE
100
AcDbPolyline
 90
        6
 70
     0
 10
22.60513666405734
 20
-1521.71053773731
 40
9.0
 41
9.0
 10
2.12320316405733
 20
-1781.95818423731
 40
9.0
 41
9.0
 10
10.18294016405733
 20
-1935.74713223731
 40
9.0
 41
9.0
 10
15.75323616405734
 20
-2059.30721923731
 40
9.0
 41
9.0
 10
15.75323616405734
 20
-2159.30721923731
 40
9.0
 41
9.0
 10
15.75323616405734
 20
-2181.34
 40
0.0
 41
0.0
  0
LWPOLYLINE
  5
6031
330
1F
100
AcDbEntity
  8
GLEISE
100
AcDbPolyline
 90
        3
 70
     0
 43
9.0
 10
-89.48899483594266
 20
-1502.44769523731
 10
-33.39769083594267
 20
-1348.33810523731
 10
66.41884916405734
 20
-1135.61032573731
  0
LWPOLYLINE
  5
6042
330
1F
100
AcDbEntity
  8
GLEISE
100
AcDbPolyline
 90
        4
 70
     0
 10
-117.5346463359427
 20
-1579.50249123731
 40
9.0
 41
9.0
 10
-158.7879228359427
 20
-1733.46181673731
 40
9.0
 41
9.0
 10
-177.2467638359427
 20
-1909.30721923731
 40
9.0
 41
9.0
 10
-177.2467638359426
 20
-2181.34
 40
0.0
 41
0.0
  0
LWPOLYLINE
  5
6057
330
1F
100
AcDbEntity
  8
GLEISE
100
AcDbPolyline
 90
        6
 70
     0
 43
9.0
 10
182.3551191640563
 20
-5649.040000071767
 10
113.1744751640574
 20
-5501.215609071767
 10
2.669266164057345
 20
-5197.605043071768
 10
-39.35497283594265
 20
-5039.896529071767
 10
-53.24676383594262
 20
-4881.112635071767
 10
-53.24676383594263
 20
-4085.640000001732
  0
LWPOLYLINE
  5
6068
330
1F
100
AcDbEntity
  8
GLEISE
100
AcDbPolyline
 90
        5
 70
     0
 43
9.0
 10
-39.35497283594265
 20
-5039.896529071767
 10
-39.35497283594264
 20
-4881.112635071767
 10
-9.95990383594263
 20
-4733.835221071768
 10
22.78191516405738
 20
-4548.147136071767
 10
36.7819151640574
 20
-4385.537136071767
  0
LWPOLYLINE
  5
6085
330
1F
100
AcDbEntity
  8
GLEISE
100
AcDbPolyline
 90
        8
 70
     0
 43
9.0
 10
152.2385871640563
 20
-5268.538243071767
 10
116.0945101640573
 20
-5229.093905071766
 10
51.70910716405734
 20
-5137.142020071768
 10
13.76290816405737
 20
-5032.885695071767
 10
4.093217164057371
 20
-4922.360620071767
 10
2.753236164057398
 20
-4581.112635071767
 10
2.753236164057398
 20
-4181.112635071767
 10
2.753236164057398
 20
-4085.640000001732
  0
LWPOLYLINE
  5
609E
330
1F
100
AcDbEntity
  8
GLEISE
100
AcDbPolyline
 90
        7
 70
     0
 43
9.0
 10
160.7044841640563
 20
-5661.540000071767
 10
87.67483116405734
 20
-5513.106289071768
 10
31.58352716405734
 20
-5358.996699071768
 10
-24.50777683594265
 20
-5204.887109071768
 10
-72.50777683594265
 20
-5043.387109071768
 10
-87.24676383594263
 20
-4881.112635071767
 10
-87.24676383594263
 20
-4085.640000001732
  0
LWPOLYLINE
  5
60AF
330
1F
100
AcDbEntity
  8
GLEISE
100
AcDbPolyline
 90
        5
 70
     0
 43
9.0
 10
-39.35497283594265
 20
-5039.896529071767
 10
-10.87667183594266
 20
-5201.405000071767
 10
31.58352716405734
 20
-5358.996699071768
 10
100.3551191640573
 20
-5507.011834071767
 10
182.3551191640563
 20
-5649.040000071767
  0
LWPOLYLINE
  5
60C0
330
1F
100
AcDbEntity
  8
GLEISE
100
AcDbPolyline
 90
        5
 70
     0
 43
9.0
 10
-72.50777683594265
 20
-5043.387109071768
 10
-129.2467638359426
 20
-4733.722635071767
 10
-157.2467638359426
 20
-4582.502635071767
 10
-177.2467638359426
 20
-4381.112635071767
 10
-177.2467638359426
 20
-4085.640000001732
  0
LWPOLYLINE
  5
60C9
330
1F
100
AcDbEntity
  8
GLEISE
100
AcDbPolyline
 90
        3
 70
     0
 43
9.0
 10
-143.2467638359426
 20
-4935.112635071767
 10
-143.2467638359426
 20
-4581.112635071767
 10
-143.2467638359426
 20
-4085.640000001732
  0
CIRCLE
  5
60CA
330
1F
100
AcDbEntity
  8
GLEISE
100
AcDbCircle
 10
221.4865831640564
 20
-5344.109170071768
 30
0.0
 40
102.5000002748295
  0
LWPOLYLINE
  5
60CF
330
1F
100
AcDbEntity
  8
GLEISE
100
AcDbPolyline
 90
        2
 70
     0
 43
9.0
 10
-177.2467638359426
 20
-3133.490000001732
 10
-177.2467638359426
 20
-4085.640000001732
  0
LWPOLYLINE
  5
60D4
330
1F
100
AcDbEntity
  8
GLEISE
100
AcDbPolyline
 90
        2
 70
     0
 43
9.0
 10
-145.2467638359427
 20
-3133.490000001732
 10
-143.2467638359426
 20
-4085.640000001732
  0
LWPOLYLINE
  5
60D9
330
1F
100
AcDbEntity
  8
GLEISE
100
AcDbPolyline
 90
        2
 70
     0
 43
9.0
 10
-81.24676383594266
 20
-3133.490000001732
 10
-87.24676383594263
 20
-4085.640000001732
  0
LWPOLYLINE
  5
60DE
330
1F
100
AcDbEntity
  8
GLEISE
100
AcDbPolyline
 90
        2
 70
     0
 43
9.0
 10
-48.24676383594266
 20
-3133.490000001732
 10
-53.24676383594263
 20
-4085.640000001732
  0
LWPOLYLINE
  5
60E3
330
1F
100
AcDbEntity
  8
GLEISE
100
AcDbPolyline
 90
        2
 70
     0
 43
9.0
 10
15.75323616405734
 20
-3133.490000001732
 10
2.753236164057398
 20
-4085.640000001732
  0
LWPOLYLINE
  5
60E8
330
1F
100
AcDbEntity
  8
GLEISE
100
AcDbPolyline
 90
        2
 70
     0
 43
9.0
 10
47.75323616405734
 20
-3133.490000001732
 10
36.78191516405605
 20
-4031.112625071768
  0
LWPOLYLINE
  5
60ED
330
1F
100
AcDbEntity
  8
GLEISE
100
AcDbPolyline
 90
        2
 70
     0
 43
9.0
 10
1112.061730401367
 20
-936.7500000000001
 10
1132.09
 20
-936.7500000000001
  0
LWPOLYLINE
  5
60F2
330
1F
100
AcDbEntity
  8
GLEISE
100
AcDbPolyline
 90
        2
 70
     0
 43
9.0
 10
1112.061730401367
 20
-961.7500000000005
 10
1132.090998306612
 20
-961.7501066419309
  0
LINE
  5
6129
330
1F
100
AcDbEntity
  8
GLEISE
 62
     2
100
AcDbLine
 10
957.2859273804031
 20
-1257.288639855022
 30
0.0
 11
990.6686437626905
 21
-1290.67135623731
 31
0.0
  0
LWPOLYLINE
  5
6146
330
1F
100
AcDbEntity
  8
GLEISE
 62
     2
100
AcDbPolyline
 90
        8
 70
     0
 43
9.0
 10
990.6686437626905
 20
-1290.67135623731
 10
957.2859273804031
 20
-1257.288639855022
 10
812.1464121640574
 20
-1172.27158623731
 10
681.1464121640574
 20
-1121.27158623731
 10
544.1464121640574
 20
-1104.27158623731
 10
444.1464121640574
 20
-1111.27158623731
 10
294.6775866640573
 20
-1140.53890723731
 10
157.1667011640574
 20
-1219.93085373731
  0
LINE
  5
630F
330
1F
100
AcDbEntity
  8
0
100
AcDbLine
 10
382.8400000000001
 20
-2181.340000001732
 30
0.0
 11
-300.0
 21
-2181.340000001732
 31
0.0
  0
LWPOLYLINE
  5
6310
330
1F
100
AcDbEntity
  8
GLEISE
100
AcDbPolyline
 90
        2
 70
     0
 43
9.0
 10
-177.2467638359426
 20
-2181.340000001732
 10
-177.2467638359426
 20
-3133.490000001732
  0
LWPOLYLINE
  5
6311
330
1F
100
AcDbEntity
  8
GLEISE
100
AcDbPolyline
 90
        2
 70
     0
 43
9.0
 10
-145.2469050237878
 20
-2181.272783998346
 10
-145.2469050237878
 20
-3133.422783998346
  0
LWPOLYLINE
  5
6312
330
1F
100
AcDbEntity
  8
GLEISE
100
AcDbPolyline
 90
        2
 70
     0
 43
9.0
 10
-81.24676383594266
 20
-2181.340000001732
 10
-81.24676383594266
 20
-3133.490000001732
  0
LWPOLYLINE
  5
6313
330
1F
100
AcDbEntity
  8
GLEISE
100
AcDbPolyline
 90
        2
 70
     0
 43
9.0
 10
-48.24676383594266
 20
-2181.340000001732
 10
-48.24676383594266
 20
-3133.490000001732
  0
LWPOLYLINE
  5
6314
330
1F
100
AcDbEntity
  8
GLEISE
100
AcDbPolyline
 90
        2
 70
     0
 43
9.0
 10
15.75323616405734
 20
-2181.340000001732
 10
15.75323616405734
 20
-3133.490000001732
  0
LWPOLYLINE
  5
6315
330
1F
100
AcDbEntity
  8
GLEISE
100
AcDbPolyline
 90
        2
 70
     0
 43
9.0
 10
47.75323616405734
 20
-2181.340000001732
 10
47.75323616405734
 20
-3133.490000001732
  0
LINE
  5
6317
330
1F
100
AcDbEntity
  8
0
100
AcDbLine
 10
382.8400000000002
 20
-3133.490000001732
 30
0.0
 11
382.8400000000003
 21
-2181.340000001732
 31
0.0
  0
LINE
  5
631E
330
1F
100
AcDbEntity
  8
0
100
AcDbLine
 10
-299.9999999999999
 20
-3133.490000001732
 30
0.0
 11
-299.9374999999999
 21
-2181.340000001732
 31
0.0
  0
LINE
  5
6320
330
1F
100
AcDbEntity
  8
BEDIENRAUM
 62
     2
100
AcDbLine
 10
1382.84
 20
-1965.685424949238
 30
0.0
 11
1382.84
 21
-5037.790000001732
 31
0.0
  0
LINE
  5
6321
330
1F
100
AcDbEntity
  8
BEDIENRAUM
 62
     2
100
AcDbLine
 10
882.84
 20
-5037.790000001732
 30
0.0
 11
1382.84
 21
-5037.790000001732
 31
0.0
  0
LINE
  5
6322
330
1F
100
AcDbEntity
  8
BEDIENRAUM
 62
     2
100
AcDbLine
 10
849.2472875253811
 20
-1432.092712474619
 30
0.0
 11
1382.84
 21
-1965.685424949238
 31
0.0
  0
LINE
  5
6324
330
1F
100
AcDbEntity
  8
BEDIENRAUM
 62
     2
100
AcDbLine
 10
-300.0000000000001
 20
-5238.576426561402
 30
0.0
 11
-1300.0
 21
-5238.576426561402
 31
0.0
  0
LINE
  5
6325
330
1F
100
AcDbEntity
  8
BEDIENRAUM
 62
     2
100
AcDbLine
 10
-1300.0
 20
-5238.576426561402
 30
0.0
 11
-1300.0
 21
-1059.655
 31
0.0
  0
LINE
  5
6326
330
1F
100
AcDbEntity
  8
BEDIENRAUM
 62
     2
100
AcDbLine
 10
10.40500000000025
 20
-1059.655
 30
0.0
 11
-1300.0
 21
-1059.655
 31
0.0
  0
ENDSEC
  0
SECTION
  2
OBJECTS
  0
DICTIONARY
  5
C
330
0
100
AcDbDictionary
  3
ACAD_COLOR
350
6C
  3
ACAD_GROUP
350
D
  3
ACAD_LAYOUT
350
1A
  3
ACAD_MATERIAL
350
6B
  3
ACAD_MLINESTYLE
350
17
  3
ACAD_PLOTSETTINGS
350
19
  3
ACAD_TABLESTYLE
350
92
  3
ACDBHEADERROUNDTRIPXREC
350
64A9
  3
ACDBVARIABLEDICTIONARY
350
59
  3
DWGPROPS
350
64CB
  0
DICTIONARY
  5
6C
102
{ACAD_REACTORS
330
C
102
}
330
C
100
AcDbDictionary
  0
DICTIONARY
  5
D
102
{ACAD_REACTORS
330
C
102
}
330
C
100
AcDbDictionary
  0
DICTIONARY
  5
1A
102
{ACAD_REACTORS
330
C
102
}
330
C
100
AcDbDictionary
  0
DICTIONARY
  5
6B
102
{ACAD_REACTORS
330
C
102
}
330
C
100
AcDbDictionary
  0
DICTIONARY
  5
17
102
{ACAD_REACTORS
330
C
102
}
330
C
100
AcDbDictionary
  3
STANDARD
350
18
  0
DICTIONARY
  5
19
102
{ACAD_REACTORS
330
C
102
}
330
C
100
AcDbDictionary
  0
DICTIONARY
  5
92
102
{ACAD_REACTORS
330
C
102
}
330
C
100
AcDbDictionary
  0
DICTIONARY
  5
64A9
102
{ACAD_REACTORS
330
C
102
}
330
C
100
AcDbDictionary
  3
CEPSNTYPE
350
64B2
  3
COLORDICT
350
64C9
  3
DIMSTYLEDATA
350
64C8
  3
FINGERPRINTGUID
350
64B3
  3
HYPERLINKBASE
350
64AC
  3
INSUNITS
350
64B1
  3
LAYOUTDICT
350
64AE
  3
LWETCUNION
350
64B0
  3
MATERIALDICT
350
64CA
  3
PLOTSETDICT
350
64AF
  3
PSVPSCALE
350
64B5
  3
PUCSBASE
350
64B8
  3
PUCSORGBACK
350
64BE
  3
PUCSORGBOTTOM
350
64BA
  3
PUCSORGFRONT
350
64BD
  3
PUCSORGLEFT
350
64BB
  3
PUCSORGRIGHT
350
64BC
  3
PUCSORGTOP
350
64B9
  3
PUCSORTHOREF
350
64B6
  3
PUCSORTHOVIEW
350
64B7
  3
STYLESHEET
350
64AD
  3
TSTACKALIGN
350
64AA
  3
TSTACKSIZE
350
64AB
  3
UCSBASE
350
64C1
  3
UCSORGBACK
350
64C7
  3
UCSORGBOTTOM
350
64C3
  3
UCSORGFRONT
350
64C6
  3
UCSORGLEFT
350
64C4
  3
UCSORGRIGHT
350
64C5
  3
UCSORGTOP
350
64C2
  3
UCSORTHOREF
350
64BF
  3
UCSORTHOVIEW
350
64C0
  3
VERSIONGUID
350
64B4
  0
DICTIONARY
  5
59
102
{ACAD_REACTORS
330
C
102
}
330
C
100
AcDbDictionary
  0
XRECORD
  5
64CB
102
{ACAD_REACTORS
330
C
102
}
330
C
100
AcDbXrecord
  1
DWGPROPS COOKIE
  2

  3

  4

  6

  7

  8
fottrem
  9

300
=
301
=
302
=
303
=
304
=
305
=
306
=
307
=
308
=
309
=
 40
0.0
 41
2453353.717125822
 42
4917340.128237037
  1

 90
        0
  0
MLINESTYLE
  5
18
102
{ACAD_REACTORS
330
17
102
}
330
17
100
AcDbMlineStyle
  2
Standard
 70
     0
  3

 62
   256
 51
90.0
 52
90.0
 71
     2
 49
0.5
 62
   256
  6
BYLAYER
 49
-0.5
 62
   256
  6
BYLAYER
  0
XRECORD
  5
64B2
102
{ACAD_REACTORS
330
64A9
102
}
330
64A9
100
AcDbXrecord
 90
        0
  0
XRECORD
  5
64C9
102
{ACAD_REACTORS
330
64A9
102
}
330
64A9
100
AcDbXrecord
340
6C
  0
XRECORD
  5
64C8
102
{ACAD_REACTORS
330
64A9
102
}
330
64A9
100
AcDbXrecord
1000
DSTYLE
1002
{
1070
   179
 70
    -1
1070
    41
 40
20.0
1070
   271
 70
     2
1070
   278
 70
     0
1070
   272
 70
     2
1070
    73
 70
     0
1070
   340
340
11
1070
   140
 40
20.0
1002
}
  0
XRECORD
  5
64B3
102
{ACAD_REACTORS
330
64A9
102
}
330
64A9
100
AcDbXrecord
  1

  0
XRECORD
  5
64AC
102
{ACAD_REACTORS
330
64A9
102
}
330
64A9
100
AcDbXrecord
  1

  0
XRECORD
  5
64B1
102
{ACAD_REACTORS
330
64A9
102
}
330
64A9
100
AcDbXrecord
 90
        0
  0
XRECORD
  5
64AE
102
{ACAD_REACTORS
330
64A9
102
}
330
64A9
100
AcDbXrecord
340
1A
  0
XRECORD
  5
64B0
102
{ACAD_REACTORS
330
64A9
102
}
330
64A9
100
AcDbXrecord
 90
    11805
  0
XRECORD
  5
64CA
102
{ACAD_REACTORS
330
64A9
102
}
330
64A9
100
AcDbXrecord
340
6B
  0
XRECORD
  5
64AF
102
{ACAD_REACTORS
330
64A9
102
}
330
64A9
100
AcDbXrecord
340
19
  0
XRECORD
  5
64B5
102
{ACAD_REACTORS
330
64A9
102
}
330
64A9
100
AcDbXrecord
 40
0.0
  0
XRECORD
  5
64B8
102
{ACAD_REACTORS
330
64A9
102
}
330
64A9
100
AcDbXrecord
340
0
  0
XRECORD
  5
64BE
102
{ACAD_REACTORS
330
64A9
102
}
330
64A9
100
AcDbXrecord
 10
0.0
 20
0.0
 30
0.0
  0
XRECORD
  5
64BA
102
{ACAD_REACTORS
330
64A9
102
}
330
64A9
100
AcDbXrecord
 10
0.0
 20
0.0
 30
0.0
  0
XRECORD
  5
64BD
102
{ACAD_REACTORS
330
64A9
102
}
330
64A9
100
AcDbXrecord
 10
0.0
 20
0.0
 30
0.0
  0
XRECORD
  5
64BB
102
{ACAD_REACTORS
330
64A9
102
}
330
64A9
100
AcDbXrecord
 10
0.0
 20
0.0
 30
0.0
  0
XRECORD
  5
64BC
102
{ACAD_REACTORS
330
64A9
102
}
330
64A9
100
AcDbXrecord
 10
0.0
 20
0.0
 30
0.0
  0
XRECORD
  5
64B9
102
{ACAD_REACTORS
330
64A9
102
}
330
64A9
100
AcDbXrecord
 10
0.0
 20
0.0
 30
0.0
  0
XRECORD
  5
64B6
102
{ACAD_REACTORS
330
64A9
102
}
330
64A9
100
AcDbXrecord
340
0
  0
XRECORD
  5
64B7
102
{ACAD_REACTORS
330
64A9
102
}
330
64A9
100
AcDbXrecord
 70
     0
  0
XRECORD
  5
64AD
102
{ACAD_REACTORS
330
64A9
102
}
330
64A9
100
AcDbXrecord
  1

  0
XRECORD
  5
64AA
102
{ACAD_REACTORS
330
64A9
102
}
330
64A9
100
AcDbXrecord
 90
        1
  0
XRECORD
  5
64AB
102
{ACAD_REACTORS
330
64A9
102
}
330
64A9
100
AcDbXrecord
 90
       70
  0
XRECORD
  5
64C1
102
{ACAD_REACTORS
330
64A9
102
}
330
64A9
100
AcDbXrecord
340
0
  0
XRECORD
  5
64C7
102
{ACAD_REACTORS
330
64A9
102
}
330
64A9
100
AcDbXrecord
 10
0.0
 20
0.0
 30
0.0
  0
XRECORD
  5
64C3
102
{ACAD_REACTORS
330
64A9
102
}
330
64A9
100
AcDbXrecord
 10
0.0
 20
0.0
 30
0.0
  0
XRECORD
  5
64C6
102
{ACAD_REACTORS
330
64A9
102
}
330
64A9
100
AcDbXrecord
 10
0.0
 20
0.0
 30
0.0
  0
XRECORD
  5
64C4
102
{ACAD_REACTORS
330
64A9
102
}
330
64A9
100
AcDbXrecord
 10
0.0
 20
0.0
 30
0.0
  0
XRECORD
  5
64C5
102
{ACAD_REACTORS
330
64A9
102
}
330
64A9
100
AcDbXrecord
 10
0.0
 20
0.0
 30
0.0
  0
XRECORD
  5
64C2
102
{ACAD_REACTORS
330
64A9
102
}
330
64A9
100
AcDbXrecord
 10
0.0
 20
0.0
 30
0.0
  0
XRECORD
  5
64BF
102
{ACAD_REACTORS
330
64A9
102
}
330
64A9
100
AcDbXrecord
340
0
  0
XRECORD
  5
64C0
102
{ACAD_REACTORS
330
64A9
102
}
330
64A9
100
AcDbXrecord
 70
     0
  0
XRECORD
  5
64B4
102
{ACAD_REACTORS
330
64A9
102
}
330
64A9
100
AcDbXrecord
  1

  0
ENDSEC
  0
EOF
